PrimaNota.ru - самый крупный в мире бесплатный архив песенных текстов, аккордов, табулатур и нот


Escape The Fate - Falling Down - таба, видео

Регистрация Запомнить меня
Войти через:  Facebook Google Twitter Vk Yandex Mail.ru

Escape The Fate - Falling Down - таба, видео

Печатать
Просмотров: 123
Tabbed By Mitch Craig

-Escape The Fate
-As Your'e Falling Down
-Album:There's No Sympathy For The Dead
Tuning-Drop D    (Only the Low E String)
EBGDAD

Both Guitar's are Mixed but if you wan't to you can figure out the Sliding guitar it's 
easy I just don't want to tab it :)

Intro
E|------------------------------------------------------------------------|
B|------------------------------------------------------------------------|
G|--------------------------------------------------------------------6~--|
D|--------------------------------------------------------------------x---|
A|-3-3333-3-3333-4-1-3-3333-3-3333-4~-3-3333-3-3333-4-1-3-3333-3-3333-4~--|
D|-3-3333-3-3333-4-1-3-3333-3-3333-4~-3-3333-3-3333-4-1-3-3333-3-3333-----|

Verse
E|----------------------------------------|
B|----------------------------------------|
G|----------------------------------------|
D|-5555------------8888-------------------|
A|-3333----6666----6666----8-6-5-3-5-3----|
D|---------6666------------8-6-5-3-5-3----|

E|------------------------------------------------------------------------------|
B|------------------------------------------------------------------------------|
G|------------------------------------------------------------------------------|
D|-5-------------------------------------8--------------------------------------|
A|-3-3333333333333333-6------------------6-66666666666666666-8--------9---------|
D|--------------------6-6666666666666666---------------------8-888888-9-999999--|
     ................   ................   .................   ......   ......


E|--------------|
B|--------------|
G|--------------|
D|--------------|
A|-8-6-5-3-5-3--|
D|-8-6-5-3-5-3--|

Chorus
E|-----------------|
B|-----------------|
G|-----------------|
D|-1~~-5~~-5~~-6~~-|
A|-1~~-5~~-3~~-6~~-|
D|-1~~-5~~-----6~~-|


Verse
E|----------------------------------------|
B|----------------------------------------|
G|----------------------------------------|
D|-5555------------8888-------------------|
A|-3333----6666----6666----8-6-5-3-5-3----|
D|---------6666------------8-6-5-3-5-3----|

E|------------------------------------------------------------------------------|
B|------------------------------------------------------------------------------|
G|------------------------------------------------------------------------------|
D|-5-------------------------------------8--------------------------------------|
A|-3-3333333333333333-6------------------6-66666666666666666-8--------9---------|
D|--------------------6-6666666666666666---------------------8-888888-9-999999--|
     ................   ................   .................   ......   ......

Chorus
E|-----------------|
B|-----------------|
G|-----------------|
D|-1~~-5~~-5~~-6~~-|
A|-1~~-5~~-3~~-6~~-|
D|-1~~-5~~-----6~~-|


Bridge
E|--------------------------------|-----------------------------------|
B|-8p0-8h9-0h6h8-0h4h6-0h2h3p3p0--|-13-----11-----13----11----13-13---|
G|--------------------------------|---1212---1212---1212--1212--12-12-|
D|--------------------------------|-----------------------------------|All 12's Palm muted
A|--------------------------------|-----------------------------------|
D|--------------------------------|-----------------------------------|
                                      . .     . .    . .   . .   .  .

Verse
E|----------------------------------------|
B|----------------------------------------|
G|----------------------------------------|
D|-5555------------8888-------------------|
A|-3333----6666----6666----8-6-5-3-5-3----|
D|---------6666------------8-6-5-3-5-3----|

Chorus
E|-------------|-------|
B|-------------|-------|
G|-12-10-8-10--|-12~~--|
D|-x--x--x-x---|-x-----|
A|-10-8--6-8---|-10~~--|
D|-------------|-------|

Outro
E|--------------------------------|------|
B|-8p0-8h9-0h6h8-0h4h6-0h2h3p3p0--|------|
G|--------------------------------|------|
D|--------------------------------|-5~\--|
A|--------------------------------|-3~\--|
D|--------------------------------|------|
Добавлено: 05.02.2014
Другие материалы по этой песне:
  • Аккорды и текст

Страница создана 05.02.2014
http://primanota.ru/escape-the-fate/falling-down-chords.htm
Привет, Гость.
Предлагаем пройти революционный курс по гитаре.
Подарок от PrimaNota.Ru, забирай!