PrimaNota.ru - самый крупный в мире бесплатный архив песенных текстов, аккордов, табулатур и нот


Escape The Fate - Fire It Up - таба, бас-таба, видео

Регистрация Запомнить меня
Войти через:  Facebook Google Twitter Vk Yandex Mail.ru

Escape The Fate - Fire It Up - таба, бас-таба, видео

Печатать
Просмотров: 248
My 3rd tab, its a realy cool song and fun to play, hope you enjoy!!!!

Drop C Tuning

Guitar 2:
D|---------------------------------------------------------------------------|
A|---------------------------------------------------------------------------|
F|---------------------------------------------------------------------------|
C|---------------------------------------------------------------------------|
G|--5---------------------------------3-3-3-5--------------------------------|
C|----0-0-0-0-0-0-6-0-6-0-5--0-3h5p3p0-0-0 --0-0-0-0-0-0-6-0-6-0-5--03h5p3p0-|
        p p p p p   p   p    p         p p     p p p p p



D|-----------|
A|-----------|
F|-----------|
C|-----------|X2
G|--3--------|
C|---0-1-0-1-|
     p   p

Main Riff:
D|---------------------------------------------------------------------------|
A|---------------------------------------------------------------------------|
F|---------------------------------------------------------------------------|
C|---------------------------------------------------------------------------|
G|--5------------------------0-3-0----3-3-3-5-----------------------0-3-0----|
C|----0-0-0-0-0-0-6-0-6-0-5--0-3-0---0-0-0 --0-0-0-0-0-0-6-0-6-0-5--0-3-0----|
        p p p p p   p   p    p p p   p p p     p p p p p            p p p



D|-----------|
A|-----------|
F|-----------|
C|-----------|X2
G|--3--------|
C|---0-1-0-1-|
     p   p




Guitar 1:
Do some dive bombs and slides and then

D|--10~~~~~~~13~~~~~~~~10~~~~~|
A|--13b~~~~~~16b~~~~~~~13b~~~~|
F|----------------------------|
C|----------------------------|
G|----------------------------|
C|----------------------------|


Verse Riff:

D|----------------------------|
A|----------------------------|
F|----------------------------|
C|----------------------------|
G|--5*------------------3-3-3-|
C|---0----6-0-6-0-5*~~---0-0--|
     p      p   p        p p
D|------------------------------|
A|------------------------------|
F|------------------------------|
C|------------------------------|
G|--5*------------------3-------|
C|---0----6-0-6-0-5*~~---0-1-0-1|
            p   p        p   p

Pre Chorus:
D|------------------------------------------------------------------|
A|------------------------------------------------------------------|
F|------------------------------------------------------------------|
C|----0-------------------0-------------------0---6-5-3-5-3h5p3-----|
G|--0-0-----------------0-0-----------------0-0----------------5----|
C|--0-0---6-5-0-3-0-3---0-0---6-5-3-6-3-6---0-0-----------------5---|
    p     p p p p p p   p     p p p p p p   p


D|-----------------------------------------------------------------------|
A|-----------------------------------------------------------------------|
F|-----------------------------------------------------------------------|
C|----0-------------------0-------------------0-------------5------------|
G|--0-0-----------------0-0-----------------0-0-------------5-5-5-5-5-5-5|
C|--0-0---6-5-0-3-0-3---0-0---6-5-3-6-3-6---0-0---6-5-0-3-0-5-5-5-5-5-5-5|
    p     p p p p p p   p     p p p p p p   p                 p p p p p p

Chorus:

D|-------------------------------------------------------------|
A|-------------------------------------------------------------|
F|-------------------------------------------------------------|
C|--0-0-0-0-0-0-2-2-3-3-3-3-3-3-7-7-5-5-5-5-5-5-3-3-3-3-2-2-2-2|
G|--0-0-0-0-0-0-2-2-3-3-3-3-3-3-7-7-5-5-5-5-5-5-3-3-3-3-2-2-2-2|
C|--0-0-0-0-0-0-2-2-3-3-3-3-3-3-7-7-5-5-5-5-5-5-3-3-3-3-2-2-2-2|



Breakdown:
D|---------------------------------------------------------|
A|---------------------------------------------------------|
F|---------------------------------------------------------|
C|---------------------------3-----------------------------|
G|------------------------3-5-5-----------------------3-5--|
C|--000-000--000-000--0000------000-000--000-000--0000---3-|

Solo:
D|-------------------------------------------------131516b~~~~151315b~~|
A|--3~~~~~~10--9~~~~~~----------------13b~~~~131517--------------------|
F|--5b~~~~~12b-11b~~~~------------1214---------------------------------|
C|--------------------------121415-------------------------------------|
G|--------------------121415-------------------------------------------|
C|---------------------------------------------------------------------|

D|--15161718171617181716-1312101210------------------------|
A|---------------------------------1310--------------------|
F|-------------------------------------12101-7b-7-5-7*-----|
C|---------------------------------------------------------|
G|---------------------------------------------------------|
C|---------------------------------------------------------|

D|-------------------------------------------------131516b~~~13-------|
A|--13p12h1013p12p1013p12p10p13p12p10p13p12p10-1315-----------1515b~~~|
F|--------------------------------------------------------------------|
C|--------------------------------------------------------------------|
G|--------------------------------------------------------------------|
C|--------------------------------------------------------------------|

D|----------------------------------------------------------------------------|
A|----------------------------------------------------------------------------|
F|--12p10--12p10--12p1012p10--12p10--12p1012p10--12p10-12p1012p10-12p10-------|
C|-------12-----12----------12-----12----------12-----12---------12----121012-|
G|----------------------------------------------------------------------------|
C|----------------------------------------------------------------------------|

D|----------------------------------------------------------------------------|
A|---------------------------------------------------------------------1310---|
F|--12p10--12p10--12p1012p10--12p10--12p1012p10--12p10-12p1012p10-12p10-------|
C|-------12-----12----------12-----12----------12-----12---------12-----------|
G|----------------------------------------------------------------------------|
C|----------------------------------------------------------------------------|

D|-101310~~~~|
A|-----------|
F|-----------|
C|-----------|
G|-----------|
C|-----------|

D|---------------------------------17b~~~~~~131210------151312------17b~~~~|
A|----17--20--17-19~~~~---17--20-17---------------131210------151312-------|
F|--16--16--16----------16--16--16-----------------------------------------|
C|-------------------------------------------------------------------------|
G|-------------------------------------------------------------------------|
C|-------------------------------------------------------------------------|
Добавлено: 29.05.2014
Другие материалы по этой песне:
  • Аккорды и текст

Страница создана 29.05.2014
http://primanota.ru/escape-the-fate/fire-it-up-chords.htm
Привет, Гость.
Предлагаем пройти революционный курс по гитаре.
Подарок от PrimaNota.Ru, забирай!