PrimaNota.ru - самый крупный в мире бесплатный архив песенных текстов, аккордов, табулатур и нот


Escape The Fate - Dragging Daed Bodies In Blue Bags Up Really Long Hills - таба, бас-таба, видео

Регистрация Запомнить меня
Войти через:  Facebook Google Twitter Vk Yandex Mail.ru

Escape The Fate - Dragging Daed Bodies In Blue Bags Up Really Long Hills - таба, бас-таба, видео

Печатать
Просмотров: 116
----------------------------------------------------------------------------         
Dead Bodies In Blue Bags Up Really Long Hills
                            -Escape The Fate
----------------------------------------------------------------------------

Tabbed by: Eric. F
Email: emo_onthefloor182@hotmail.com

Tuning: Drop C (CGCFAD)

If you don't know how to tune your guitar to drop C, here's how.
Make sure your guitar is in STANDARD tuning before you begin.

1) Play the 3rd fret Low E string and the A string open. Retune the A string to match 
3rd fret Low E string.
2) Play the 5th fret on the A string and the D string open. Retune the D string to match 
5th fret on the A string.
3) Play the 5th fret on the D string and the G string open. Retune the G string to match 
5th fret on the D string.
4) Play the 4th fret on the G string and the B string open. Retune the B string to match 
5th fret on the G string.
5) Play the 5th fret on the B string and the High E string open. Retune the High E 
to the 5th fret on the B string.
6) Last play the 12th fret on the Low E string and the D string open. Retune the 12th 
on the Low E to the D string open.
and thst it u hav yur drop c tuned guitar.


Dragging dead bodies in blue bags up really long hills--

Intro(stacardo playing)--
C|-------------------------------------------------------------|
G|-6-6-5-5-9-9-6-5-6--------------6-5-6--6-6-5-5-11-11-12-11-6-|
C|-*-*-*-*-*-*-*-*-*-3-3--3-3-5-5-*-*-*--*-*-*-*-*--*--*--*--*-|
F|-3-3-2-2-5-5-3-2-3-3-3--3-3-5-5-3-2-3--3-3-2-2-7--7--8--7--3-|x 3
A|-------------------1-1--1-1-3-3------------------------------|
D|-------------------------------------------------------------|
(this part is played the first time through like that but after that the 3 parts r sorta 
abit so listen to the song and see if u can recognise the order)and it ends like this--
|------||
|------||
|-3----||
|-3-0~-||
|-1-0~-||
|---0~-||

this is the hard bit lol-
Pre Verse-
|----------------------------------------------------------|
|----------------------------------------------------------|
|----------------------------------------------------------|
|---3-2p0-2-0---0-----2---3-2--0-0-3-2p0-2-0---0-----2---0-|
|-------------3---0-3---3------0-0-----------3---0-3---3---|
|-0----------------------------0-0-------------------------|
 and thats all i got so far ill add more once iv figured it out thanks, pls feel free to 
with corrections thank u
Добавлено: 18.06.2013
Другие материалы по этой песне:
  • Аккорды и текст

Страница создана 18.06.2013
http://primanota.ru/escape-the-fate/dragging-daed-bodies-in-blue-bags-up-really-long-hills-chords.htm
Привет, Гость.
Предлагаем пройти революционный курс по гитаре.
Подарок от PrimaNota.Ru, забирай!