PrimaNota.ru - самый крупный в мире бесплатный архив песенных текстов, аккордов, табулатур и нот


Eric Prydz - Opus - таба, видео

Регистрация Запомнить меня
Войти через:  Facebook Google Twitter Vk Yandex Mail.ru

Eric Prydz - Opus - таба, видео

Печатать
Просмотров: 214
Уроки эстрадного вокала в Санкт-Петербурге
Авторы музыки: Eric Prydz

                         ( THEMA )        Eric Prydz     OPUS  
                          
no capo


    F#m                                 F#madd2
    Gtr I
||----2-------2-----|---2-------2-----|---4-------4-----|---4-------4-----|
||o-------2-------2-|-------2-------2-|-------2-------2-|-------2-------2-|
||------2-------2---|-----2-------2---|-----2-------2---|-----2-------2---|
||--4-------4-------|-4-------4-------|-4-------4-------|-4-------4-------|
||o-----------------|-----------------|-----------------|-----------------|
||------------------|-----------------|-----------------|-----------------|


  F#madd3                              Dadd5
|---5--------5-----|---5-------5-----|---5-------5-----|---5-------5------|
|-------2--------2-|-------2-------2-|-------3-------3-|-------3-------3--|
|-----2--------2---|-----2-------2---|-----2-------2---|-----2-------2----|
|-4--------4-------|-4-------4-------|-4-------4-------|-4-------4--------|
|------------------|-----------------|-----------------|------------------|
|------------------|-----------------|-----------------|------------------|


  Eadd4                               E
  Gtr I
|---5-------5-----|---5-------5-----|---4-------4-----|---4-------4-----|
|-------5-------5-|-------5-------5-|-------5-------5-|-------5-------5-|
|-----7-------7---|-----7-------7---|-----4-------4---|-----4-------4---|
|-7-------7-------|-7-------7-------|-----------------|-----------------|
|-----------------|-----------------|-7-------7-------|-7-------7-------|
|-----------------|-----------------|-----------------|-----------------|



bass:

e----------------------------------------------|
B----------------------------------------------| 
G----------------------------------------------|
D-4--4--2--2---0--0--------0--0--2--2--4--4----|
A--------------------2--2----------------------|
E----------------------------------------------|

chords :

  F#m  F#madd2  F#madd3   Dadd5    Eadd4   E
|-2------4---------5--------5--------5-----4---------|
|-2------2---------2--------3--------5-----5---------| 
|-2------2---------2--------2--------7-----4---------|
|-4------4---------4--------4--------7-----7---------|
|-x------x---------x--------x--------x-----x---------|
|-x------x---------x--------x--------x-----x---------|

                                 OPUS  ( THEMA )
                            As recorded by Eric Prydz

Version 2 : capo on II
  
  Em                                  Emadd2
  
|---0-------0-----|---0-------0-----|---2-------2-----|---2-------2-----|
|-------0-------0-|-------0-------0-|-------0-------0-|-------0-------0-|
|-----0-------0---|-----0-------0---|-----0-------0---|-----0-------0---|
|-2-------2-------|-2-------2-------|-2-------2-------|-2-------2-------|
|-----------------|-----------------|-----------------|-----------------|
|-----------------|-----------------|-----------------|-----------------|


  Em                                  C
|---3-------3-----|---3-------3-----|---3-------3-----|---3-------3-----|
|-------0-------0-|-------0-------0-|-------1-------1-|-------1-------1-|
|-----0-------0---|-----0-------0---|-----0-------0---|-----0-------0---|
|-2-------2-------|-2-------2-------|-2-------2-------|-2-------2-------|
|-----------------|-----------------|-----------------|-----------------|
|-----------------|-----------------|-----------------|-----------------|


  Dadd4                               D
|---3-------3-----|---3-------3-----|---2--------2-----|---2-------2-------||
|-------3-------3-|-------3-------3-|-------3--------3-|-------3-------3--o||
|-----5-------5---|-----5-------5---|-----2--------2---|-----2-------2-----||
|-5-------5-------|-5-------5-------|-0--------0-------|-0-------0---------||
|-----------------|-----------------|------------------|------------------o||
|-----------------|-----------------|------------------|-------------------||
Добавлено: 03.05.2016
Другие материалы по этой песне:
  • Аккорды и текст

Страница создана 03.05.2016
http://primanota.ru/eric-prydz/opus-chords.htm
Привет, Гость.
Предлагаем пройти революционный курс по гитаре.
Подарок от PrimaNota.Ru, забирай!