PrimaNota.ru - самый крупный в мире бесплатный архив песенных текстов, аккордов, табулатур и нот


Era - Devore Amante - текст песни, таба, видео

Регистрация Запомнить меня
Войти через:  Facebook Google Twitter Vk Yandex Mail.ru

Era - Devore Amante - текст песни, таба, видео

Печатать
Просмотров: 139
---------------------------------------------------------------------------------------------------
                                          Artist - Era
                                         **************
                                      Song - Devore Amante
                                     **********************
                                      Album - Era 2 (2000)  
                                     **********************
                                      Tabbed By - Ayreon77
                                     **********************
---------------------------------------------------------------------------------------------------
Tuning = Standard


02:41
   b Whammy       s        b br    s       b  rp                                             b
e|-9-/\/\/\/\/\/\-\--|---7-9-9-~~~~\-|---7-9----7---|-------------PH------|-s------10-------10-|
B|-------------------|-7-------------|-7------------|-10-brb--rp---rbp----|-\12-12----12-12----|
G|-------------------|---------------|------------9-|----9------7--9--7---|--------------------|
D|-------------------|---------------|--------------|-------------------9-|--------------------|
A|-------------------|---------------|--------------|---------------------|--------------------|
E|-------------------|---------------|--------------|---------------------|--------------------|

              b  b                         b         br        b  b
e|-s------10-12-10-|-10-----------10-|----15-14-~~-|-12-10----12-10-10------------s---10-~~~~-|
B|-\12-12----------|----12-10-12-----|-12----------|-------12--|--|----12-10----10\12---------|
G|-----------------|-----------------|-------------|-----------|--|----------12---------------|
D|-----------------|-----------------|-------------|-He could use-----------------------------|
A|-----------------|-----------------|-------------|--a whammy bar----------------------------|
E|-----------------|-----------------|-------------|-----here---------------------------------|

03:11                               b                               b  r
e|--b-17--rbp-----b--b--------|----17-----rb---------|---s---17-19-19-----17-19--rb-------|
B|-17----17--15--17-15--12-15-|-15-------17-15-17-~~-|-17\19--------------------17--15-17-|
G|----------------------------|----------------------|------------------------------------|
D|----------------------------|----------------------|------------------------------------|
A|----------------------------|----------------------|------------------------------------|
E|----------------------------|----------------------|------------------------------------|

                                                      03:26      b              b       s          b   b  br
e|---b-14-17-14---rb---------------------------------|----19-21-21-~~~-|----19-21-~~-21-\-|----19-21--22-21-|
B|-17-----------17---15-17----15------------15-------|-19--------------|-19---------------|-19--------------|
G|-------------------------16----16-14-16~~----16-14-|-----------------|------------------|-----------------|
D|---------------------------------------------------|-----------------|------------------|-----------------|
A|---------------------------------------------------|-----------------|------------------|-----------------|
E|---------------------------------------------------|-----------------|------------------|-----------------|
                                        hold          hold
                                        bend          bend
03:37  br                              b | |         b | |         b  rp
e|-17-19-17---s--------b-------|---7-9-9-9-9-|---7-9-9-9-9-9-|---7-9----7---|
B|----------19\17-15--17-15----|-7-----------|-7-------------|-7----------b-|
G|--------------------------16-|-------------|---------------|------------9-|
D|-----------------------------|-------------|---------------|--------------|
A|-----------------------------|-------------|---------------|--------------|
E|-----------------------------|-------------|---------------|--------------|

                                                      
e|----7---------------7------10-7--------------------|
B|-10---brp-------b-7---10-7------10-7-br------------|
G|------9--7----7-9--------------------9-7---9-7-----|
D|-----------9-----------------------------9-----9---|
A|-------------------------------------------------9-|
E|---------------------------------------------------|

           Fading.........................................................................................
                                       p                              04:01                      b  b  r
e|-------7------10-7----------7---p--10-7---p------------------------|------------brb--r--10-12-12-12----|
B|---b-7---10-7------10-7-b-7---10-7------10-7-b--------h----h-------|-s---10-12-12----------------------|
G|-7-9--------------------9--------------------9-9-7---7-9--7-9-~~~~-|-\11-------------------------------|
D|---------------------------------------------------9---------------|-----------------------------------|
A|-------------------------------------------------------------------|-----------------------------------|
E|-------------------------------------------------------------------|-----------------------------------|


Difficult in places, but an excellent solo.

ENJOY........
Добавлено: 09.11.2015
Другие материалы по этой песне:
  • Аккорды и текст

Страница создана 08.07.2012
http://primanota.ru/era/devore-amante-chords.htm
Привет, Гость.
Предлагаем пройти революционный курс по гитаре.
Подарок от PrimaNota.Ru, забирай!