PrimaNota.ru - самый крупный в мире бесплатный архив песенных текстов, аккордов, табулатур и нот


Enya - I Want Tomorrow - текст песни, таба, бас-таба, видео

Регистрация Запомнить меня
Войти через:  Facebook Google Twitter Vk Yandex Mail.ru

Enya - I Want Tomorrow - текст песни, таба, бас-таба, видео

Печатать
Просмотров: 200
Авторы музыки: Nicky Ryan, Enya
Авторы текста: Roma Ryan
+++++++++++++++++++++++++
| Enya- I Want Tomorrow |
+++++++++++++++++++++++++


"You may take my life away..."

Tuning: EADGBe


Chords used in this song:

E:   022100
F:   133211
F#m: 244222
G:   320003
G#m: 466444
A:   x02220
Am:  x02210
D:   xx0232



Intro


Am - G - F - G


Verse

Am          G          F           G
Dawn breaks   there is blue in the sky
Am        G   F
Your face   before me
      G
Though I don't know 
Am  G             F              G              Am           
why   Thoughts disappearing like tears from the Moon


Am - G - F - G


Chorus

A                      G#m     F#m
Now you're here, I can see   your light
E                 D    A       D    E
  this light that I    must    fo - llow
A            G#m     F#m           E
You, you may take my life away, 
D       E
so far away
A                 G#m      F#m
Now I know I must leave your spell
E             D    E
  I want to - mo - rrow


1.
e|-----4~--------|
B|---------------|
G|-2/4-----------|
D|---------------|
A|---------------|
E|---------------|


Bridge
2.
e|----3-3-3-3~--3~--3~------------------8-7-5-3-3h5-5~----3-0~----5-3-0-8-5-7/8-----------|
B|--3/5-5-5-5~--5~--5~----3h5---------------------------------------------------6~--------|
G|----------------------------2~----------------------------------------------------------|
D|----------------------------------------------------------------------------------------|
A|----------------------------------------------------------------------------------------|
E|----------------------------------------------------------------------------------------|

3.
e|----8~--8~-----8~----7~--7~----7~----5~--5~--------1-1h3~--3~--3~--3/5~--5~--5~--------|
B|-10---------10-----8---------8-----6-------------1-------------------------------------|
G|---------------------------------------------0-2---------------------------------------|
D|---------------------------------------------------------------------------------------|
A|---------------------------------------------------------------------------------------|
E|---------------------------------------------------------------------------------------|


Chorus


A - G#m - F#m - E - D - A - D - E
A - G#m - F#m - E - D - E
A - G#m - F#m - E - D - E


Outro
4.
e|-14-14-12~----14-14-12~----8/9~---8/9~---7~-5~--------0~--4~----7~--------|
B|--------------------------------------------------------------------------|
G|--------------------------------------------------------------------------|
D|--------------------------------------------------------------------------|
A|--------------------------------------------------------------------------|
E|--------------------------------------------------------------------------|

5.
e|-9-7-5-4-5~--7~---2-0~--------|
B|------------------------------|
G|------------------------------|
D|------------------------------|
A|------------------------------|
E|------------------------------|


Lyrics:


Dawn breaks, there is blue in the sky
Your face before me
Though I don't know why
Thoughts disappearing like tears from the Moon

Waiting here, as I sit by the stone,
They came before me
Those men from the Sun
Signs from the heavens say I am the one

Now you're here, I can see your light,
this light that I must follow
You, you may take my life away, so far away
Now I know I must leave your spell
I want tomorrow



+++++++++++++++++++++++++++++++++
| RaiLeff                       |
| Underground__Dora@Hotmail.Com |
+++++++++++++++++++++++++++++++++
Добавлено: 15.03.2012
Другие материалы по этой песне:
  • Аккорды и текст

Страница создана 15.03.2012
http://primanota.ru/enya/i-want-tomorrow-chords.htm
Привет, Гость.
Предлагаем пройти революционный курс по гитаре.
Подарок от PrimaNota.Ru, забирай!