PrimaNota.ru - самый крупный в мире бесплатный архив песенных текстов, аккордов, табулатур и нот


Enya - In Dreams - таба, видео

Регистрация Запомнить меня
Войти через:  Facebook Google Twitter Vk Yandex Mail.ru

Enya - In Dreams - таба, видео

Печатать
Просмотров: 133
Уроки эстрадного вокала в Санкт-Петербурге
e--------|----------0--|--2---2--|----0--2--0---------|-------------|----------0--|
B-----0--|--2---0-2----|---------|------------2----0--|--0-------0--|--2---0-2----|
G---2----|--2----------|---------|---------------2----|--|-----2----|--2----------|
D--------|-------------|--0------|--------------------|--|----------|-------------|
A--------|-------------|---------|----0---------------|--|----------|-------------|
E--------|--2----------|---------|--------------------|--0----------|--2----------|


e---2---2-5--|--0---2-0--------|------------0--|--2--0--2--5--|
B------------|--|-------2---0--|--0------2-----|--------------|
G------------|--|---------2----|--|------------|--------------|
D---0--------|--|--------------|--|------------|--0-----------|
A------------|--0--------------|--|------------|--------------|
E------------|-----------------|--0------------|--------------|


e--0------2--|---2---0---------|--0--|
B--|---2-----|----------2-0-2--|--|--|
G--|---------|-----------------|--|--|
D--|---------|-----------------|--|--|
A--0---------|---2-------------|--|--|
E------------|-----------------|--0--|

Chorus
e--0-----2--|---5------0--|--5---7---|--5--7-5--4--4--|
B--|--------|-------------|----------|----------------|
G--|--------|-------------|----------|----------------|
D--|--------|-------------|--0-------|----------------|
A--0--------|-------------|----------|----------------|
E-----------|---2---------|----------|--0-------------|

[1]
e--5---0---|--0------0--------|-------0----0-------|
B--|-------|------3-----3--2--|--3---------|---2---|
G--|-------|------------------|------------|-------|
D--|-------|------------------|--0---------|-------|
A--0-------|------------------|------------|-------|
E----------|--0---------------|------------0-------|

[2]
e----5------0--|---2----0-2-0----|----0-----0----|
B----|---------|--------------3--|----|----------|
G----|---------|-----------------|----|----------|
D----|---------|---0-------------|----|----------|
A----|---------|-----------------|----|----------|
E----2---------|-----------------|----0----------|


e---0-----|--------------|
B---|-----|----------0---|
G---|-----|-------2------|
D---|-----|--------------|
A---0-----|---0----------|
E---------|--------------|


e--0----|---0---4---|---5----0--|---2----0-2-0----|---0---0--|--0---|
B--|----|---|-------|-----------|--------------3--|---|------|--|---|
G--|----|---|-------|-----------|-----------------|---|------|--|---|
D--|----|---|-------|-----------|---0-------------|---|------|--|---|
A--0----|---|-------|-----------|-----------------|---|------|--0---|
E-------|---0-------|---2-------|-----------------|---0------|------|
Добавлено: 28.07.2012
Другие материалы по этой песне:
  • Аккорды и текст

Страница создана 28.07.2012
http://primanota.ru/enya/in-dreams-chords.htm
Привет, Гость.
Предлагаем пройти революционный курс по гитаре.
Подарок от PrimaNota.Ru, забирай!