PrimaNota.ru - самый крупный в мире бесплатный архив песенных текстов, аккордов, табулатур и нот


Enya - Bard Dance - бас-таба, видео

Регистрация Запомнить меня
Войти через:  Facebook Google Twitter Vk Yandex Mail.ru

Enya - Bard Dance - бас-таба, видео

Печатать
Просмотров: 120
Авторы музыки: Enya

++++++++++++++++++++
| Enya- Bard Dance |
++++++++++++++++++++


Tuning: EADG


1.
G|-0~----------3-------0-0~----------3---0-0-|
D|---------------3~--------------------3-----|
A|-------------------------------------------|
E|-------------------------------------------|

2.
G|-0~----0~----3-------0-0~----0~----3---0-0-|
D|---------------3~--------------------3-----|
A|-------------------------------------------|
E|-------------------------------------------|

3.
G|-3~----3~----3~----0~----3~----3~----3~----0~----|
D|----3~----------------------3~-------------------|
A|-------------------------------------------------|
E|-------------------------------------------------|

4.
G|-0~----0~----3-------0-0~----0~----3---0-0-|
D|---------------3~--------------------3-----|
A|-------------------------------------------|--x2
E|-------------------------------------------|

5.
G|-3~----3~----3~----0~------3~----3~----3~----0~------|
D|----3~-----------------0~-----3~-----------------0~--|
A|-----------------------------------------------------|
E|-----------------------------------------------------|

6.
G|-0~-----0~----3-------0-0~-----0~----3---0-0-|
D|----0~----------3~-3~------0~----------3-----|
A|---------------------------------------------|
E|---------------------------------------------|






+++++++++++++++++++++++++++++++++
| RaiLeff                       |
| Underground__Dora@Hotmail.Com |
+++++++++++++++++++++++++++++++++
Добавлено: 13.05.2012
Другие материалы по этой песне:

Страница создана 13.05.2012
http://primanota.ru/enya/bard-dance-chords.htm
Привет, Гость.
Предлагаем пройти революционный курс по гитаре.
Подарок от PrimaNota.Ru, забирай!