PrimaNota.ru - самый крупный в мире бесплатный архив песенных текстов, аккордов, табулатур и нот


Enya - Epona - бас-таба, видео

Регистрация Запомнить меня
Войти через:  Facebook Google Twitter Vk Yandex Mail.ru

Enya - Epona - бас-таба, видео

Печатать
Просмотров: 225
Уроки эстрадного вокала в Санкт-Петербурге
Авторы музыки: Enya

+++++++++++++++
| Enya- Epona |
+++++++++++++++


Tuning: EADG


00:21

1.
G|-----22-----33----0-02-22-----22-----33----0-02-22---|
D|-0-0----0-0----3-3--------0-0----0-0----3-3--------0-|
A|-----------------------------------------------------|
E|-----------------------------------------------------|

2.
G|-7~--3~--5~--7~--0~--2~--3~--0-5~--7~--3~--5~--7~--0~--2~--3~--5~--|
D|-------------------------------------------------------------------|
A|-------------------------------------------------------------------|
E|-------------------------------------------------------------------|

3.
G|-----22-----33----0-02-22-----22-----33----0-02-22---|
D|-0-0----0-0----3-3--------0-0----0-0----3-3--------0-|
A|-----------------------------------------------------|
E|-----------------------------------------------------|

4.
G|-7~--3~--5~--7~--0~--2~--3~--0-5~--7~--3~--5~--7~--0~--2~--3~--5~--|
D|-------------------------------------------------------------------|
A|-------------------------------------------------------------------|
E|-------------------------------------------------------------------|

5.
G|-----22-----33----0-02-22-----22-----33----0-02-22-------|
D|-0-0----0-0----3-3--------0-0----0-0----3-3--------0~----|
A|---------------------------------------------------------|
E|---------------------------------------------------------|






+++++++++++++++++++++++++++++++++
| RaiLeff                       |
| Underground__Dora@Hotmail.Com |
+++++++++++++++++++++++++++++++++
Добавлено: 15.05.2012
Другие материалы по этой песне:

Страница создана 27.02.2012
http://primanota.ru/enya/epona-chords.htm
Привет, Гость.
Предлагаем пройти революционный курс по гитаре.
Подарок от PrimaNota.Ru, забирай!