PrimaNota.ru - самый крупный в мире бесплатный архив песенных текстов, аккордов, табулатур и нот


Ennio Morricone - Man With The Harmonica - таба, видео

Регистрация Запомнить меня
Войти через:  Facebook Google Twitter Vk Yandex Mail.ru

Ennio Morricone - Man With The Harmonica - таба, видео

Печатать
Просмотров: 749
Уроки эстрадного вокала в Санкт-Петербурге
Ennio Morricone - The Man with the Harmonica

by: Neil R. Rose
neil.damage.done@gmail.com

Ya you can get the idea. I can't figure out the strings section, which is epic but 
yea. This isn't fully accurate. 

e|--12----11--------12-|--12-------11---12--|
B|---------------------|------13------------|
G|---------------------|--------------------|
D|---------------------|--------------------|
A|---------------------|--------------------|
E|---------------------|--------------------|

e|----------0--|-----------0-------------0-------------0------------0------|
B|--1---4------|--------4--------------4-------------4----------4----------|
G|-------------|------------------1--------------2----------2--------------|
D|-------------|----6------------------------------------------------------|
A|-------------|-----------------------------------------------------------|
E|-------------|-----------------------------------------------------------|


e|--0-----1--3--5-----5-----------0------------------8---8-------------------|
B|-----------------------3------3----3--1--3--1-------------7----------------|
G|---------------------------------------------------------------------------|
D|---------------------------------------------------------------------------|
A|---------------------------------------------------------------------------|
E|---------------------------------------------------------------------------|
------


e|---------0--------------------------------5------7--0---|
B|---------------0--------0-1-0-----0---------------------|
G|----2--------------------------2----2-------------------|
D|--------------------------------------------------------|
A|--------------------------------------------------------|
E|--------------------------------------------------------|

e|-------3--5--3------3-------8---7--8-7---0---0----5---13-12--10--8-7--5--|
B|---6--------------3------------------------------------------------------|
G|-------------------------------------------------------------------------|
D|-------------------------------------------------------------------------|
A|-------------------------------------------------------------------------|
E|-------------------------------------------------------------------------|

Octave that mother for some fat-ass sound.

e|------------------------------------------------|
B|------------------------------------------------|
G|------------------------------------------------|
D|------2-------------------2---------7----9------|
A|--0------2----2-3-2----0-----0---------------7--|
E|------------------------------------------------|

e|------------------------------------------------------------------------|
B|------------------------------------------------------------------------|
G|-----0--2--0-------0----------------------------------------------------|
D|--3-------------0---------------------2---2-----------------------------|
A|------------------------3---2--3-2------------0----8--7--5---3--2----0--|
E|------------------------------------------------------------------------|
Добавлено: 29.07.2012
Другие материалы по этой песне:

Страница создана 21.02.2012
http://primanota.ru/ennio-morricone/man-with-the-harmonica-chords.htm
Привет, Гость.
Предлагаем пройти революционный курс по гитаре.
Подарок от PrimaNota.Ru, забирай!