PrimaNota.ru - самый крупный в мире бесплатный архив песенных текстов, аккордов, табулатур и нот


Ennio Morricone - Once Upon A Time In The West - таба, видео

Регистрация Запомнить меня
Войти через:  Facebook Google Twitter Vk Yandex Mail.ru

Ennio Morricone - Once Upon A Time In The West - таба, видео

Печатать
Просмотров: 303
As recorded by troubleclef

Music by ennio morricone
Arranged by Soko
Transcribed by Soko

Gtr I (D A D G B E) - 'Drop D'

   Q=120
  4/4
   Gtr I
   W          W           W           H   +Q   Q  H  +Q   Q   H   +Q
||------|-----------|-----------|----14--(14)-12-12-(12)-10--10--(10)--|
||------|-----------|-----------|----15--(15)-14-14-(14)-12--12--(12)--|
||------|-----------|-----------|--------------------------------------|
||------|-----------|-----0-----|----(0)-------------------------------|
||------|-----0-----|----(0)----|--------------------------------------|
||-0----|----(0)----|-----------|-----------------0--(0)-(0)-(0)--(0)--|


     Q     H   +Q   Q     H   +Q   Q    W +W  +W
|-|--9--|-12--(12)-10--|-10--(10)--9--|-7-(7)-(7)-|
|-|-10--|-14--(14)-12--|-12--(12)-10--|-8-(8)-(8)-|
|-|-----|--------------|--------------|-0-(0)-(0)-|
|-|-----|--------------|--------------|-----------|
|-|-----|--------------|--------------|-----------|
|-|-(0)-|-(0)--(0)-(0)-|-(0)--(0)-(0)-|-5-(5)-(5)-|
                                           W   W


   H  +Q   Q    H  +Q   Q     H   +Q   Q     H   +Q   Q
|-19-(19)-17-|-17-(17)-15--|-15--(15)-14--|-17--(17)-15--|---|
|-20-(20)-19-|-19-(19)-17--|-17--(17)-15--|-19--(19)-17--|---|
|------------|-------------|--------------|--------------|---|
|------------|-------------|--------------|--------------|---|
|------------|--0--(0)-(0)-|-(0)--(0)-(0)-|-(0)--(0)-(0)-|---|
|------------|-------------|--------------|--------------|---|


   H   +Q   Q     W    +W    W       H  +Q   Q    H +Q   Q
|-15--(15)-14--|-14-|-(14)-|---|--|-------------|-----------|
|-17--(17)-15--|-15-|-(15)-|---|--|--7--(7)--5--|-5-(5)--3--|
|--------------|----|------|---|--|--7--(7)--6--|-6-(6)--4--|
|--------------|--0-|--(0)-|---|--|-------------|-----------|
|-(0)--(0)-(0)-|----|------|---|--|-------------|-----------|
|--------------|----|------|-0-|--|-(0)-(0)-(0)-|-0-(0)-(0)-|
                        W    W


   H  +Q   Q     H  +Q   Q     H  +Q   Q    W   +W
|-------------|-------------|-------------|---|-----|
|--3--(3)--2--|--5--(5)--3--|--3--(3)--2--|-0-|-(0)-|
|--4--(4)--2--|--6--(6)--4--|--4--(4)--2--|-0-|-(0)-|
|-------------|-------------|-------------|---|-----|
|-------------|-------------|-------------|---|-----|
|-(0)-(0)-(0)-|-(0)-(0)-(0)-|-(0)-(0)-(0)-|-5-|-(5)-|


  +W     H  +Q   Q    H +Q   Q     H  +Q   Q
|-----|--7--(7)--5--|-5-(5)--3--|--3--(3)--2--|
|-(0)-|-------------|-----------|-------------|
|-(0)-|--7--(7)--6--|-6-(6)--4--|--4--(4)--2--|
|-----|-------------|-----------|-------------|
|-----|-------------|-0-(0)-(0)-|-(0)-(0)-(0)-|
|-(5)-|-(5)-(5)-(5)-|-----------|-------------|


   H  +Q   Q     H  +Q   Q    W   +W
|--5--(5)--3--|--3--(3)--2--|-2-|-(2)-|----|
|-------------|-------------|---|-----|----|
|--6--(6)--4--|--4--(4)--2--|-2-|-(2)-|----|
|-------------|-------------|---|-----|----|
|-(0)-(0)-(0)-|-(0)-(0)-(0)-|---|-----|----|
|-------------|-------------|-0-|-(0)-|----|


  H  H   H   Q    E E  Q   Q   Q   Q
|---------------|------2--(2)-(2)-(2)-|
|---------------|---------------------|
|---------------|-2----------------2--|
|--------0---4--|--------------4------|
|----0--(0)-(0)-|----------5----------|
|-0-(0)-(0)-(0)-|---0-(0)-(0)-(0)-(0)-|


  E  E   Q   Q   Q    Q  Q   Q   Q    Q  Q   Q   Q
|--------3---2---0--|---------------|---------------|----|
|-------------------|-3-(3)--3--(3)-|-3-(3)--3--(3)-|----|
|-------------------|--------4------|--------5------|----|
|----4--(4)-(4)-(4)-|----4--(4)--4--|----5--(5)--5--|----|
|-4-(4)-(4)-(4)-(4)-|-2-(2)-(2)-(2)-|-0-(0)-(0)-(0)-|----|
|-------------------|---------------|---------------|----|


  Q  Q   Q    Q   +H     Q   Q  Q  Q   Q   Q
|-7-(7)-15--(15)-(15)-|-14--12--2-(2)-(2)-(2)-|
|-0-(0)-(0)--(0)--(0)-|---------2-(2)--2--(2)-|
|-0--0--(0)---0---(0)-|---------2--2--(2)--2--|
|---------------------|-----------------------|
|---------------------|-----------------------|
|-5-(5)-(5)--(5)--(5)-|-(5)-(5)-0-(0)-(0)-(0)-|


   Q   Q   E   Q. Q  Q   Q   Q   Q     Q   Q   Q    Q  Q   Q   Q   H
|-(2)-(2)---------------------------|-------------|----------------2--|---|
|--1--(1)--3s==5--5-(5)--3--(3)-(3)-|--2---3---0--|--------2--(2)-(2)-|---|
|-(2)--2---------------------4--(4)-|--4--(4)-(4)-|-2----------2--(2)-|---|
|--------------------4--(4)-(4)-(4)-|-------------|-4--4--(4)-(4)-(4)-|---|
|-----------------2-(2)-(2)-(2)--2--|-(2)-(2)-(2)-|-------------------|---|
|--0--(0)-(0)-(0)-------------------|-------------|-4-(4)-(4)-(4)-(4)-|---|


  H  H   Q   Q   Q   Q    H Q  Q   Q   Q   W
|-----------------------|---2-(2)-(2)-(2)--2--|
|----0--(0)-(0)--0--(0)-|---2-(2)--2--(2)-(2)-|
|-2-(2)-(2)--2--(2)--2--|---2--2--(2)--2--(2)-|
|--------0--(0)-(0)-(0)-|-2-4-(4)-(4)-(4)-(4)-|
|-----------------------|---------------------|
|----5--(5)-(5)-(5)-(5)-|---0-(0)-(0)-(0)-(0)-|


    Q   Q    Q    Q    Q    Q    H      Q   Q    Q    Q    Q    Q    Q    Q
|-----------------------------------|-------9----9---------------------------|----|
|------12---12--(12)-(12)-(12)------|----------------12----------------------|----|
|-^11-(11)-(11)--11---11--(11)-(11)-|-^11-(11)-(11)-(11)--11--(11)-------11--|----|
|-^12---------------------------12--|-^12-(12)-(12)-----------------12--(12)-|----|
|-^11-(11)-(11)-(11)-(11)--11--(11)-|-^10-(10)-(10)-(10)-(10)--10--(10)-(10)-|----|
|-^-9--(9)--(9)--(9)--(9)--(9)--(9)-|-^-9--(9)--(9)--(9)--(9)--(9)--(9)--(9)-|----|


   Q  Q   Q    Q     Q  Q   Q    Q    E   Q.   Q    Q   Q   Q    Q    Q   Q   Q    Q    Q
|----10--10--(10)-|----10--10--(10)-|---^-5--^-9--^-7--^7-^-5--^-5--^-3--^3-^-2--^-5--^-3--|
|-^8-(8)-(8)---8--|-^9-(9)-(9)---9--|---^-7--^10--^-8--^8-^-7--^-7--^-5--^5-^-3--^-7--^-5--|
|-^7-(7)-(7)--(7)-|-^7-(7)-(7)--(7)-|---^-7--^-9--^-7--^7-^-6--^-6--^-4--^4-^-2--^-6--^-4--|
|-^0-(0)-(0)--(0)-|-^0-(0)-(0)--(0)-|---^-0--^-0--^-0--^0----------------------------------|
|-----------------|-----------------|------------------------------------^0-^(0)-^(0)-^(0)-|
|-^8-(8)-(8)--(8)-|-^8-(8)-(8)--(8)-|-0-^(0)-^(0)-^(0)-^5-^(5)-^(5)-^(5)-------------------|


   Q  Q   Q   Q   Q   Q   Q   Q
|-^2-(2)-(2)-(2)-(2)-(2)-(2)-(2)-|----|
|-^2-(2)-(2)-(2)--3--(3)-(3)--3--|----|
|-^2-(2)-(2)--2--(2)-(2)--2--(2)-|----|
|---------4--(4)-(4)--4--(4)-(4)-|----|
|-----5--(5)-(5)-(5)-(5)-(5)-(5)-|----|
|-^0-(0)-(0)-(0)-(0)-(0)-(0)-(0)-|----|


  S  E.  Q    Q    Q     E  E   Q    Q    Q     Q   Q    Q    Q
|----2--(2)--(2)---2---|--------3----2----0---|-------------------|
|-------------3---(3)--|----------------------|-3--(3)---3---(3)--|
|--------2---(2)--(2)--|----------------------|----------4--------|
|----------------------|----4--(4)--(4)--(4)--|-----4---(4)---4---|
|----------------------|-4-(4)-(4)--(4)--(4)--|-2--(2)--(2)--(2)--|
|-0-(0)-(0)--(0)--(0)--|----------------------|-------------------|


  Q   Q    Q    Q     Q   Q    Q     Q      +H     Q    Q     Q   Q    Q    Q
|-------------------|-7--(7)--15---(15)--|-(15)---14---12---|-2--(2)--(2)--(2)-|----|
|-3--(3)---3---(3)--|-0--(0)--(0)---(0)--|--(0)-------------|-2--(2)---2---(2)-|----|
|----------5--------|-0---0---(0)----0---|--(0)-------------|-2---2---(2)---2--|----|
|-----5---(5)---5---|--------------------|------------------|------------------|----|
|-0--(0)--(0)--(0)--|--------------------|------------------|------------------|----|
|-------------------|-5--(5)--(5)---(5)--|--(5)---(5)--(5)--|-0--(0)--(0)--(0)-|----|


  Q   Q    E    Q.    Q   Q    Q    Q      Q    Q    Q    Q     Q   Q    Q    Q    H
|-2--(2)------------|-------------------|---------------------|--------------------2---|
|-1--(1)---3s===5---|-5--(5)---3---(3)--|-(3)---2----3----0---|----------2---(2)--(2)--|
|-2---2-------------|---------------4---|-(4)---4---(4)--(4)--|-2-------------2---(2)--|
|-------------------|-----4---(4)--(4)--|-(4)-----------------|-4---4---(4)--(4)--(4)--|
|-------------------|-2--(2)--(2)--(2)--|--2---(2)--(2)--(2)--|------------------------|
|-0--(0)--(0)--(0)--|-------------------|---------------------|-4--(4)--(4)--(4)--(4)--|


   H   Q    Q       Q     Q     Q    Q    Q     Q      Q    Q     Q     Q       Q    Q    H
|---------------|---3----(3)----0--------------------|-2---(2)---(2)---(2)---|----------------|----|
|------0---(0)--|---0----(0)---(0)--------------3----|------------------3----|--2---(2)--(2)--|----|
|--2--(2)--(2)--|---------0---------------0----(0)---|------------2----(2)---|-(2)--(2)---2---|----|
|-----------0---|--(0)---(0)---(0)---2---(2)---(2)---|------4----(4)---(4)---|-------4---(4)--|----|
|---------------|---------------0---(0)--(0)---(0)---|-----------------------|----------------|----|
|------5---(5)--|--(5)---(5)-------------------------|-0---(0)---(0)---(0)---|--0---(0)--(0)--|----|


  Q  Q   Q   Q     Q   Q   Q   Q    +W    Q  Q   Q   Q
|--------3--(3)-|--0--(0)-(0)-(0)-|-(0)-|---------------|
|-0-(0)-(0)-(0)-|--------------3--|-(3)-|---------------|
|-0-(0)-(0)--0--|-(0)-(0)--0--(0)-|-(0)-|------------2--|
|----0--(0)-(0)-|-(0)--2--(2)-(2)-|-(2)-|--------4--(4)-|
|---------------|--0--(0)-(0)-(0)-|-(0)-|----5--(5)-(5)-|
|-5-(5)-(5)-(5)-|-----------------|-----|-0-(0)-(0)-(0)-|


   Q   Q   Q   Q    Q  Q   Q   Q     Q   Q   Q   Q
|-----------------|---------------|--6--(6)-(6)--6--|----|
|--3--(3)-(3)-(3)-|------------6--|-(6)-(6)--6--(6)-|----|
|-(2)-(2)-(2)--2--|-7-(7)--7--(7)-|-(7)--7--(7)-(7)-|----|
|-(4)-(4)--4--(4)-|----8--(8)-(8)-|-(8)-(8)-(8)-(8)-|----|
|-(5)--5--(5)-(5)-|---------------|-----------------|----|
|-(0)-(0)-(0)-(0)-|-8-(8)-(8)-(8)-|-(8)-(8)-(8)-(8)-|----|


  Q  Q   Q   Q     Q    Q    Q    Q     +W      W    +W
|---------------|----------------10--|-(10)-|-^14-|-(14)----|
|------------7--|-10--(10)--10--(10)-|-(10)-|-^15-|-(15)----|
|--------7--(7)-|------11--(11)-(11)-|-(11)-|-----|---------|
|----7--(7)-(7)-|--------------------|------|-----|---------|
|---------------|--------------------|------|-----|---------|
|-0-(0)-(0)-(0)-|-(0)--(0)--(0)--(0)-|--(0)-|-^-0-|--(0)----|


Duration Legend
---------------
W - whole; H - half; Q - quarter; E - 8th; S - 16th; T - 32nd; X - 64th; a - acciaccatura
+ - note tied to previous; . - note dotted; .. - note double dotted
Uncapitalized letters represent notes that are staccato (1/2 duration)
Irregular groupings are notated above the duration line
Duration letters will always appear directly above the note/fret number it represents the
duration for.  Duration letters with no fret number below them represent rests.  Multi-
bar rests are notated in the form Wxn, where n is the number of bars to rest for.  Low
melody durations appear below the staff

Tablature Legend
----------------
 h   - hammer-on
 p   - pull-off
 b   - bend
 pb  - pre-bend
 r   - bend release (if no number after the r, then release immediately)
 /\  - slide into or out of (from/to "nowhere")
 s   - legato slide
 S   - shift slide
  - natural harmonic
[n]  - artificial harmonic
n(n) - tapped harmonic
 ~   - vibrato
 tr  - trill
 T   - tap
 TP  - trem. picking
 PM  - palm muting
\n/  - tremolo bar dip; n = amount to dip
 \n  - tremolo bar down
 n/  - tremolo bar up
/n\  - tremolo bar inverted dip
 =   - hold bend; also acts as connecting device for hammers/pulls
 <>  - volume swell (louder/softer)
 x   - on rhythm slash represents muted slash
 o   - on rhythm slash represents single note slash

Misc Legend
-----------
 |  - bar
||  - double bar
||o - repeat start
o|| - repeat end
*|  - double bar (ending)
 :  - bar (freetime)
 $  - Segno
 &  - Coda
Tempo markers -  = BPM(8/16=s8/s16), where s8 = swing 8ths, s16 = swing 16ths


Добавлено: 16.11.2013
Другие материалы по этой песне:

Страница создана 21.02.2012
http://primanota.ru/ennio-morricone/once-upon-a-time-in-the-west-chords.htm
Привет, Гость.
Предлагаем пройти революционный курс по гитаре.
Подарок от PrimaNota.Ru, забирай!