PrimaNota.ru - самый крупный в мире бесплатный архив песенных текстов, аккордов, табулатур и нот


Empire Of The Sun - Ill Be Around - таба, видео

Регистрация Запомнить меня
Войти через:  Facebook Google Twitter Vk Yandex Mail.ru

Empire Of The Sun - Ill Be Around - таба, видео

Печатать
Просмотров: 232
Alright, when I made this, I wasn't as skilled with knowing guitar and other instruments and- blah. You all understand. But I finished it today, I got bored and the progression popped up and I thought "Wow... This is easy as hell. How did I not figure this out." SO yeah, here it is. c: Enjoy!

I'll Be Around

Tuning: Standard

INTRO:

Vocal Part (Intro) (w/o tone | w/ chorus and reverb)
e|-------------------------------|
B|15/17b~----15/10~--------------|
G|-------------------------------|
D|-------------------------------|
A|-------------------------------|
E|-------------------------------|


Lead Guitar 2 (w/chorus and reverb)
e|-------------------------------| e|--------|---------------------
B|x---10~-------10 10------------| B|---10~--|10-10-----10-10------
G|--12-----12-12-----12----------| G|-12-----|-----12-12-----12-12-
D|-------------------------------| D|--------|---------------------
A|-------------------------------| A|--------|---------------------
E|-------------------------------| E|--------|---------------------

[Anything within bouncing back and forth with those notes.]

*To get the normal sound, simply have your tone nobs turned up completely, and have as
treble as you need to be comfortable with. To get the closest sound, add a chorus effect
with reverb. During the second intro-like part, the second lead guitar changes up the 
beginning. The first two notes with either be in a stronger chorus effect or a
watery-flanger effect. The note on the 'B' string may also bend. After those two notes, 
the rest are back to normal. Just chorus and reverb.*

Bass Riff 1: Guitar Chords (Am, F, G, Em - F, G)
G|----------------------------------------------------------------
D|----------------------------------------------------------------
A|----------------------------------------------------------------
E|5-5-5-1-1-1-1-1-3-3-3-0-0-0-0-0-1-1-1-1-1-1-1-1-1-1-1-1-3-3-3-3-

Bass Riff 2: (F, G)
G|--------------------------------
D|--------------------------------
A|--------------------------------
E|1-1-1-1-1-1-1-1-1-1-1-1-3-3-3-3-

Bridge:
e|--------------------------------
B|--5---1---3---0---1---1---1---3-
G|-5-5-2-2-4-4-0-0-2-2-2-2-2-2-4-4
D|7---3---5---2---3---3---3---5---
A|--------------------------------
E|--------------------------------
*This Part just loops until it ends. It also still uses the lead guitar 2 second part (only two notes)*
Добавлено: 30.05.2014
Другие материалы по этой песне:
  • Аккорды и текст

Страница создана 26.06.2013
http://primanota.ru/empire-of-the-sun/ill-be-around-chords.htm
Привет, Гость.
Предлагаем пройти революционный курс по гитаре.
Подарок от PrimaNota.Ru, забирай!