PrimaNota.ru - самый крупный в мире бесплатный архив песенных текстов, аккордов, табулатур и нот


Emphatic - By My Side - таба, видео

Регистрация Запомнить меня
Войти через:  Facebook Google Twitter Vk Yandex Mail.ru

Emphatic - By My Side - таба, видео

Печатать
Просмотров: 304
eb|--------------------------|
Bb|--------------------------|
Gb|-2--------------7---------|
Db|-2----2----4----7---------|
Ab|-0----2----4----5---------|
Eb|------0----2--------------|
   Am   Em   F#m    D

(--1/2 step Down--)

The Verses have picking pattern with those chords (i think anyways) i will try to figure 
them out the best i can
Also i couldn't figure the lead solo out so i will work on that and update when i get it.


A                                       Em
I call your phone just to hear your voice
                           F#m
And say 'Hello I Miss You Baby'
          D
And It's driving me crazy
A                            Em
How are you? It's been so long
                            F#m
I can't believe that you are gone
                    D
Have you found somebody new?

{PreChorus}
Em                        D
No one said that It was easy, Two hearts beating
Em                          D
No one said that it was perfect, But they don't know you


{Chorus}

   Where do we go from here?
eb|--------------------------|
Bb|--------------------------|
Gb|-2----2-----2-------------|
Db|-2----2-----2-------------|
Ab|-0----0-----0-------------|
Eb|--------------------------|

                I can't say Goodbye
eb|--------------------------------------|
Bb|--------------------------------------|
Gb|--------------------------------------|
Db|-2---------2-------------------4------|
Ab|-2---------2-------------------4------|
Eb|-0---------0-------------------2------|


                How can I make this right?
eb|---------------------------------------|
Bb|---------------------------------------|
Gb|-----------------------7---------------|
Db|-4---------------------7---------------|
Ab|-4---------------------5---------------|
Eb|-2-------------------------------------|

   Where do we go from here?
eb|--------------------------|
Bb|--------------------------|
Gb|-2----2-----2-------------|
Db|-2----2-----2-------------|
Ab|-0----0-----0-------------|
Eb|--------------------------|

                When i turn out the light
eb|--------------------------------------|
Bb|--------------------------------------|
Gb|--------------------------------------|
Db|-2---------2---------------------4----|
Ab|-2---------2---------------------4----|
Eb|-0---------0---------------------2----|


                I need you baby, By my side
eb|---------------------------------------|
Bb|---------------------------------------|
Gb|---------------------------7-----------|
Db|-4-------------------------7-----------|
Ab|-4-------------------------5-----------|
Eb|-2-------------------------------------|

                        By my side
eb|--------------------------------------|
Bb|--------------------------------------|
Gb|--------------------7-7-7-7-7-7-7-7---|
Db|-4-4-4-4-4-4-4-4----7-7-7-7-7-7-7-7---|
Ab|-4-4-4-4-4-4-4-4----5-5-5-5-5-5-5-5---|
Eb|-2-2-2-2-2-2-2-2----------------------|
  PM. . . . . . . .    . . . . . . . .


   I made a mistake and i'm sorry
eb|--------
Bb|(x16)---
Gb|--2-----|
Db|--2-----|
Ab|--0-----|
Eb|--------|
  PM .

   I would take it back if I could
eb|--------
Bb|(x16)---
Gb|--------|
Db|--2-----|
Ab|--2-----|
Eb|--0-----|
PM   .

Please forgive me
          eb|--------
          Bb|(x16)---
          Gb|--------|
          Db|--4-----|
          Ab|--4-----|
          Eb|--2-----|
            PM .

I wanna be the One that makes you happy
                  eb|--------
                  Bb|(x16)---
                  Gb|--7-----|
                  Db|--7-----|
                  Ab|--5-----|
                  Eb|--------|
                    PM .

I built the walls that held us back
eb|--------
Bb|(x16)---
Gb|--2-----|
Db|--2-----|
Ab|--0-----|
Eb|--------|
  PM .

I drove the car that made us crash
eb|--------                    eb|--------|
Bb|(x16)---                    Bb|(x16)---|
Gb|--------                    Gb|--------|
Db|--2-----                    Db|--4-----|
Ab|--2-----                    Ab|--4-----|
Eb|--0-----                    Eb|--2-----|
PM   .                           PM .

                D
It was me, It never you
                  eb|--------
                  Bb|(x16)---
                  Gb|--7-----|
                  Db|--7-----|
                  Ab|--5-----|
                  Eb|--------|
                    PM .

{Prechorus}

   No one said that It was easy, Two hearts beating
eb|------------------------------------------------|
Bb|-------------------------(x16)------------------|
Gb|(x16)----------------------7--------------------|
Db|-2-------------------------7--------------------|
Ab|-2-------------------------5--------------------|
Eb|-0----------------------------------------------|
  PM.                         .

   No one said that it was perfect, But they don't know you
eb|---------------------------------------------------------|
Bb|-------------------------(x16)---------------------------|
Gb|(x16)----------------------7-----------------------------|
Db|-2-------------------------7-----------------------------|
Ab|-2-------------------------5-----------------------------|
Eb|-0-------------------------------------------------------|
  PM.                         .

{Chorus}

   Where do we go from here?
eb|--------------------------|
Bb|--------------------------|
Gb|-2----2-----2-------------|
Db|-2----2-----2-------------|
Ab|-0----0-----0-------------|
Eb|--------------------------|

                I can't say Goodbye
eb|--------------------------------------|
Bb|--------------------------------------|
Gb|--------------------------------------|
Db|-2---------2-------------------4------|
Ab|-2---------2-------------------4------|
Eb|-0---------0-------------------2------|


                How can I make this right?
eb|---------------------------------------|
Bb|---------------------------------------|
Gb|-----------------------7---------------|
Db|-4---------------------7---------------|
Ab|-4---------------------5---------------|
Eb|-2-------------------------------------|

   Where do we go from here?
eb|--------------------------|
Bb|--------------------------|
Gb|-2----2-----2-------------|
Db|-2----2-----2-------------|
Ab|-0----0-----0-------------|
Eb|--------------------------|

                When i turn out the light
eb|--------------------------------------|
Bb|--------------------------------------|
Gb|--------------------------------------|
Db|-2---------2---------------------4----|
Ab|-2---------2---------------------4----|
Eb|-0---------0---------------------2----|


                I need you baby, By my side
eb|---------------------------------------|
Bb|---------------------------------------|
Gb|---------------------------7-----------|
Db|-4-------------------------7-----------|
Ab|-4-------------------------5-----------|
Eb|-2-------------------------------------|

     Can we give it one more try?
eb|---------------------------------------|
Bb|---------------------------------------|
Gb|---------------------------7-----------|
Db|--2------------------------7-----------|
Ab|--2------------------------5-----------|
Eb|--0------------------------------------|

   Just help me, Baby
eb|---------------------------------------|
Bb|---------------------------------------|
Gb|---------------------------------------|
Db|---------------------------------------|
Ab|---------------------------------------|
Eb|---------------------------------------|
   What can I do?
eb|---------------------------------------|
Bb|---------------------------------------|
Gb|---------------------------------------|
Db|-2-------------------------------------|
Ab|-2-------------------------------------|
Eb|-0-------------------------------------|
   I wanna make it up to you
eb|---------------------------------------|
Bb|---------------------------------------|
Gb|---------7-----------------------------|
Db|---------7-----------------------------|
Ab|---------5-----------------------------|
Eb|---------------------------------------|

{Solo}
eb|--------------------------------------------------------|
Bb|-(x12)---------------------------(x12)------------------|
Gb|--2-----(x12)----(x12)-------------7--------------------|
Db|--2------2--------4----------------7--------------------|
Ab|--0------2--------4----------------5--------------------|
Eb|---------0--------2-------------------------------------|

{Prechorus}

   No one said that It was easy, Two hearts beating
eb|---------------------------------------------------------|
Bb|-------------------------(x16)---------------------------|
Gb|(x16)----------------------7-----------------------------|
Db|-2-------------------------7-----------------------------|
Ab|-2-------------------------5-----------------------------|
Eb|-0-------------------------------------------------------|
  PM.                         .

   No one said that it was perfect, But they don't know you
eb|---------------------------------------------------------|
Bb|-------------------------(x16)---------------------------|
Gb|(x16)----------------------7-----------------------------|
Db|-2-------------------------7-----------------------------|
Ab|-2-------------------------5-----------------------------|
Eb|-0-------------------------------------------------------|
  PM.                         .
{Chorus}

   Where do we go from here?
eb|--------------------------|
Bb|--------------------------|
Gb|-2----2-----2-------------|
Db|-2----2-----2-------------|
Ab|-0----0-----0-------------|
Eb|--------------------------|

                I can't say Goodbye
eb|--------------------------------------|
Bb|--------------------------------------|
Gb|--------------------------------------|
Db|-2---------2-------------------4------|
Ab|-2---------2-------------------4------|
Eb|-0---------0-------------------2------|


                How can I make this right?
eb|---------------------------------------|
Bb|---------------------------------------|
Gb|-----------------------7---------------|
Db|-4---------------------7---------------|
Ab|-4---------------------5---------------|
Eb|-2-------------------------------------|

   Where do we go from here?
eb|--------------------------|
Bb|--------------------------|
Gb|-2----2-----2-------------|
Db|-2----2-----2-------------|
Ab|-0----0-----0-------------|
Eb|--------------------------|

                When i turn out the light
eb|--------------------------------------|
Bb|--------------------------------------|
Gb|--------------------------------------|
Db|-2---------2---------------------4----|
Ab|-2---------2---------------------4----|
Eb|-0---------0---------------------2----|


                I need you baby, By my side
eb|---------------------------------------|
Bb|---------------------------------------|
Gb|---------------------------7-----------|
Db|-4-------------------------7-----------|
Ab|-4-------------------------5-----------|
Eb|-2-------------------------------------|

   Can we give it one more try?  By my side
eb|---------------------------------------|
Bb|---------------------------------------|
Gb|--2------------------------------------|
Db|--2---------------------------2--------|
Ab|--0---------------------------2--------|
Eb|------------------------------0--------|


Just help me, Baby,             By my side
eb|---------------------------------------|
Bb|---------------------------------------|
Gb|------------------------------7--------|
Db|--4---------------------------7--------|
Ab|--4---------------------------5--------|
Eb|--2------------------------------------|


I made a mistake and i'm sorry, By my side
eb|---------------------------------------|
Bb|---------------------------------------|
Gb|--2------------------------------------|
Db|--2---------------------------2--------|
Ab|--0---------------------------2--------|
Eb|------------------------------0--------|


I would take it back if I could Please forgive me, By my side
eb|---------------------------------------------------------|
Bb|---------------------------------------------------------|
Gb|------------------------------------------------7--------|
Db|--4---------------------------------------------7--------|
Ab|--4---------------------------------------------5--------|
Eb|--2------------------------------------------------------|


A                                       Em
I call your phone just to hear your voice
                           F#m
And say 'Hello I Miss You Baby'
Добавлено: 01.08.2015
Другие материалы по этой песне:
  • Аккорды и текст

Страница создана 01.08.2015
http://primanota.ru/emphatic/by-my-side-chords.htm
Привет, Гость.
Предлагаем пройти революционный курс по гитаре.
Подарок от PrimaNota.Ru, забирай!