PrimaNota.ru - самый крупный в мире бесплатный архив песенных текстов, аккордов, табулатур и нот


Elvis Presley - Summer Kisses Winter Tears - текст песни, таба, видео

Регистрация Запомнить меня
Войти через:  Facebook Google Twitter Vk Yandex Mail.ru

Elvis Presley - Summer Kisses Winter Tears - текст песни, таба, видео

Печатать
Просмотров: 337
Gtr I (E A D G B E) - 'Untitled'

  Q=105
    Gtr I
    H E E      E E     Q  Q  Q    E E Q  Q  Q    E E Q  Q  Q
|-----------|-------------------|--------------|--------------|-|
|-----------|-------------------|--------------|--------------|-|
|-----------|-------------------|--------------|--------------|-|
|-----------|-------------------|--------------|--------------|-|
|-----2-----|--2-2--------0--2--|-2-2----0--2--|-2-2----0--2--|-|
|-----------|----------2--------|-----2--------|-----2--------|-|
  E


  E E E E E E H      E.   E.   E  E   E E E  E E E
|-------7-6--------|-3---11---10--8-|--------------|
|---7-9-----7-9----|----------------|---7-9--7-7---|
|-8----------------|----------------|-8----------8-|
|------------------|----------------|--------------|
|------------------|----------------|--------------|
|------------------|----------------|--------------|


  H    e E. E Q                  E  E  E  E E E
|---|--1-6--5-4-------------|----------------------|---|
|---|-----------------------|----------------------|---|
|-6-|--4-8--7-6-------------|----6--8--6-----------|---|
|---|-----------------------|-------------9-6-9----|---|
|---|-----------------------|----------------------|---|
|---|-----------------------|----------------------|---|


                                              ~
  Q  E Q  Q    E Q.   E Q  E..   Q    E E E E E
|------------|-----------------|----|-----5-8-5-|
|----7-7-----|-----------------|-4--|-8-6-5-8-5-|
|-8----------|-8-6----4-4------|-4--|-----5-8-5-|
|------------|-------------6---|----|-----------|
|------------|-----------------|----|-----------|
|------------|-----------------|----|-----------|


  E E E E E E H      E.  E.  E E
|-------7-6--------|-3--11--10-8--|----|
|---7-9-----7-9----|--------------|----|
|-8----------------|--------------|----|
|------------------|--------------|----|
|------------------|--------------|----|
|------------------|--------------|----|


  E E E E E E   H    e E. E Q    E E E E E E
|-------------|------1-6--5-4--|-------------|
|---7-9-7-7---|----------------|-------------|
|-8---------8-|-6----4-8--7-6--|-6-8-6-------|
|-------------|----------------|-------9-6-9-|
|-------------|----------------|-------------|
|-------------|----------------|-------------|


  Q  E Q  Q  E   Q.   E Q.   E..   H
|--------------|-----------------|------|
|----7-7-------|-----------------|------|
|-8----------8-|-6---------------|------|
|--------------|------9-9----6---|-9----|
|--------------|-----------------|------|
|--------------|-----------------|------|


  E E Q  E E q E   E   E  E  Q   E q E q   Q q    E Q
|----------------|-------------|---4-4-4---4-6-|--6-6--|
|----------------|-----5--5--6-|-5-------------|-------|
|-4-4-6--6-6-8-8-|-8-----------|---------------|-------|
|----------------|-------------|---------------|-------|
|----------------|-------------|---------------|-------|
|----------------|-------------|---------------|-------|
                                         Q


  E Q.   E E Q.      Q  E.  E  E   q  E E.  Q   E.  Q.    Q E  Q  Q Q.
|-4--------------|---------------|------------|--------|------------------|
|---7----7-9-----|------9---9--9-|-9--9-------|-9------|----------9-7-----|
|------------8---|---8-----------|------8---8-|-----8--|--6-6--8----------|
|----------------|---------------|------------|--------|------------------|
|----------------|---------------|------------|--------|------------------|
|----------------|---------------|------------|--------|------------------|
       H           H
Добавлено: 03.04.2012
Другие материалы по этой песне:

Страница создана 23.02.2012
http://primanota.ru/elvis-presley/summer-kisses-winter-tears-chords.htm
Привет, Гость.
Предлагаем пройти революционный курс по гитаре.
Подарок от PrimaNota.Ru, забирай!