PrimaNota.ru - самый крупный в мире бесплатный архив песенных текстов, аккордов, табулатур и нот


Elvis Presley - Thats All Right - текст песни, таба, бас-таба, видео

Регистрация Запомнить меня
Войти через:  Facebook Google Twitter Vk Yandex Mail.ru

Elvis Presley - Thats All Right - текст песни, таба, бас-таба, видео

Печатать
Просмотров: 250
Уроки эстрадного вокала в Санкт-Петербурге
THAT'S ALL RIGHT, MAMA

As recorded by Elvis Presley
(From the 1958 Album ELVIS' GOLDEN RECORDS)

Words and Music by Arthur Crudup
Arranged by Elvis Presley

Transcribed by Slowhand


Gtr I (E A D G B E) - 'Elvis Presley - Acoustic Guitar'
Gtr II (E A D G B E) - 'Scotty Moore - Electric Guitar'


 Intro
  Q=208(8=s8)
  A
 4/4
  Gtr I (Ac. Gtr.)
  Q  Q  E E E E   Q  Q  E E E E   Q  Q  E E E E   Q  Q  E E E E
|----0----0-0-0-|----0----0-0-0-|----0----0-0-0-|----0----0-0-0-|
|----2----2-2-2-|----2----2-2-2-|----2----2-2-2-|----2----2-2-2-|
|----2----2-2-2-|----2----2-2-2-|----2----2-2-2-|----2----2-2-2-|
|----2----2-2-2-|----2----2-2-2-|----2----2-2-2-|----2----2-2-2-|
|-0--0----0-0-0-|-0--0----0-0-0-|-0--0----0-0-0-|-0--0----0-0-0-|
|-------0-------|-------0-------|-------0-------|-------0-------|


                  1st Verse
                   A
  Q  Q  E E E E    Q  Q   E  E E E   Q   Q      E   E E E   Q  Q   E  E E E
|----0----0-0-0-||----0------0-0-0-|-----0----------0-0-0-|----0------0-0-0--|
|----2----2-2-2-||----2------2-2-2-|-----2----------2-2-2-|----2------2-2-2--|
|----2----2-2-2-||----2------2-2-2-|-----2----------2-2-2-|----2------2-2-2--|
|----2----2-2-2-||----2------2-2-2-|-----2----------2-2-2-|----2------2-2-2--|
|-0--0----0-0-0-||-0--0------0-0-0-|-0---0----------0-0-0-|-0--0------0-0-0--|
|-------0-------||--------0--------|------------0---------|--------0---------|
|
| Gtr II (El. Gtr.)
| W                Q  Q  +E  E Q     Q.     E  +E   E Q     Q  Q  +E  Q   E
|---------------||-----------------|-------12-(12)--9-----|------------------|
|---------------||-----------5-5---|-5-------------10-----|-----------5------|
|---------------||-6--6--(6)-6-6---|-6--------------------|----6--(6)-6------|
|---------------||-7--7--(7)-------|----------------------|----7--(7)--------|
|---------------||-----------------|----------------------|------------------|
|---------------||-----------------|----------------------|------------------|


  Q  Q      E   E E E   Q  Q   E  E E  E
|----0----------0-0-0-|----0------0-0--0-|
|----2----------2-2-2-|----2------2-2--2-|
|----2----------2-2-2-|----2------2-2--2-|
|----2----------2-2-2-|----2------2-2--2-|
|-0--0----------0-0-0-|-0--0------0-0--0-|
|-----------0---------|--------0---------|
|
| Q  E  E  +E   E Q     Q  Q  +E  E E  E
|-9----12-(12)--9-----|-----------5------|
|--------------10-----|-----------5-5s10-|
|-9--9----------9-----|----6--(6)-6------|
|---------------------|----7--(7)--------|
|---------------------|------------------|
|---------------------|------------------|


   Q    Q    E  E  E E    Q     Q     E  E  E  E
|-------0-------0--0-0-|--------0--------0--0--0--|
|-------2-------2--2-2-|--------2--------2--2--2--|
|-------2-------2--2-2-|--------2--------2--2--2--|
|-------2-------2--2-2-|--------2--------2--2--2--|
|--0----0-------0--0-0-|--0-----0--------0--0--0--|
|------------0---------|--------------0-----------|
|
|  e  e E  e E  e  Q      E  E  E  E  E  E  E  E
|--9--9----9----9--9---|--9--9--9--9--9--9--9--9--|
|-10-10---10---10-10---|-10-10-10-10-10-10-10-10--|
|--9--9----9----9--9---|--9--9--9--9--------------|
|----------------------|--------------------------|
|----------------------|--------------------------|
|----------------------|--------------------------|


  A7                        D
   Q     E  E  E  E  E  E   Q  Q  E E E E
|--3-----3--3--3--3--3--3-|----2----2-2-2-|
|--2-----2--2--2--2--2--2-|----3----3-3-3-|
|--2-----2--2--2--2--2--2-|----2----2-2-2-|
|--2-----2--2--2--2--2--2-|-0--0----0-0-0-|
|--0-----0--0--0--0--0--0-|-------0-------|
|-------------------------|---------------|
|
|  E  E  E  E  E  E  Q      Q  Q  E E E E
|--9--9--9--9--9--9--9\---|----5----------|
|-10-10-10-10-10-10-10\---|----7--7---7---|
|--------------9--9--9\---|-------7-7---7-|
|-------------------------|----7----------|
|-------------------------|---------------|
|-------------------------|---------------|


  Q  Q    E  E E E   Q  Q    E  E E E
|----2-------2-2-2-|----2-------2-2-2--|
|----3-------3-3-3-|----3-------3-3-3--|
|----2-------2-2-2-|----2-------2-2-2--|
|-0--0-------0-0-0-|-0--0-------0-0-0--|
|---------0--------|---------0---------|
|------------------|-------------------|
|
| Q  E E +E  E Q     Q  E E +E  E E E
|------------------|-------------------|
|----7-------------|----7-7-(7)-7-7-7--|
|-7----9-(9)-7-----|----7-7-(7)-7-7-7--|
|------------------|----7-7-(7)-7-7-7--|
|------------------|-------------------|
|------------------|-------------------|


                  E
  Q  Q  E E E E   Q  E E E E E E   Q  E E E E E E   Q  E E E E E E
|----2----2-2-2-|----0-0-0-0-0-0-|----0-0-0-0-0-0-|----0-0-0-0-0-0--|
|----3----3-3-3-|----0-0-0-0-0-0-|----0-0-0-0-0-0-|----0-0-0-0-0-0--|
|----2----2-2-2-|----1-1-1-1-1-1-|----1-1-1-1-1-1-|----1-1-1-1-1-1--|
|-0--0----0-0-0-|----2-2-2-2-2-2-|----2-2-2-2-2-2-|----2-2-2-2-2-2--|
|-------0-------|----2-2-2-2-2-2-|----2-2-2-2-2-2-|----2-2-2-2-2-2--|
|---------------|-0--0-0-0-0-0-0-|-0--0-0-0-0-0-0-|-0--0-0-0-0-0-0--|
|
| Q  Q  H         Q  E E E E Q     Q  Q   E E Q     q  E E q   Q
|---------------|----7-7-7-7-7---|-7--------7-----|-7--7-7-7--------|
|-5-------------|----5-5-5-5-5---|-5--------7-----|-7--7-7-7--------|
|-5-------------|----7-7-7-7-7---|-7--------7-----|----7-7-7--------|
|---------------|----6-6-6-6-6---|-6--------6-----|-----------------|
|---------------|----------------|----------------|-----------------|
|---------------|----------------|----------------|-----------------|


                     A
  Q  E E  E  E E E   Q  Q   E  E E E   Q  Q    E  E E E
|----0-0--0--0-0-0-|----0------0-0-0-|----0-------0-0-0-||
|----0-0--0--0-0-0-|----2------2-2-2-|----2-------2-2-2-||
|----1-1--1--1-1-1-|----2------2-2-2-|----2-------2-2-2-||
|----2-2--2--2-2-2-|----2------2-2-2-|----2-------2-2-2-||
|----2-2--2--2-2-2-|-0--0------0-0-0-|-0--0-------0-0-0-||
|-0--0-0--0--0-0-0-|--------0--------|---------0--------||
|
| Q  E E +E  e Q     Q  Q  +E  E Q     Q  E E +E  E Q
|-7--7-9-(9)-7-----|----5--(5)-------|-5----------------||
|-7--7-7-(7)-7-----|----5--(5)-7p5---|-5--5-7-(7)-5-----||
|-7--7-7-(7)-7-----|----6--(6)-6-----|-6------------6---||
|------------------|-----------------|------------------||
|------------------|-----------------|------------------||
|------------------|-----------------|------------------||


 2nd Verse
  A
  Q  Q   E  E E E   Q    Q    E E   E  E   Q  Q   E  E E E   Q  Q    E  E E E
|----0------0-0-0-|------0------0---0--0-|----0------0-0-0-|----0-------0-0-0--|
|----2------2-2-2-|------2------2---2--2-|----2------2-2-2-|----2-------2-2-2--|
|----2------2-2-2-|------2------2---2--2-|----2------2-2-2-|----2-------2-2-2--|
|----2------2-2-2-|------2------2---2--2-|----2------2-2-2-|----2-------2-2-2--|
|-0--0------0-0-0-|-0----0------0---0--0-|-0--0------0-0-0-|-0--0-------0-0-0--|
|--------0--------|-----------0----------|--------0--------|---------0---------|
|
| Q  Q  +E  E q     Q    E  E E E   Q      Q  Q  +E  E q     Q  E  E E  E Q
|----5--(5)-------|--------12---9-(10)---|----5--(5)-------|------12----9------|
|----5--(5)-7-7---|-5--/10-10------10----|----5--(5)-5h7---|-5----10---10------|
|----6--(6)---6---|-6--------------------|----6--(6)-6-----|-6-----------------|
|-7-----------7---|----------------------|-----------------|-------------------|
|-----------------|----------------------|-----------------|-------------------|
|-----------------|----------------------|-----------------|-------------------|


  Q  Q  E E E E    Q  Q    E  E E E
|----0----0-0-0-|-----0-------0-0-0-|
|----2----2-2-2-|-----2-------2-2-2-|
|----2----2-2-2-|-----2-------2-2-2-|
|----2----2-2-2-|-----2-------2-2-2-|
|-0--0----0-0-0-|--0--0-------0-0-0-|
|-------0-------|----------0--------|
|
| Q  Q  E E Q      Q  E E  E  E Q
|----5----5-----|--9--9-9-12--9-----|
|----5--7-7-5---|-10---------10-----|
|----6----------|--9----------9-----|
|---------------|-------------------|
|---------------|-------------------|
|---------------|-------------------|


                            A7
   Q     Q     E  E  E  E    Q     E  E  E  E E E
|--------0--------0--0--0-|--3-----3--3--3--3-3-3--|
|--------2--------2--2--2-|--2-----2--2--2--2-2-2--|
|--------2--------2--2--2-|--2-----2--2--2--2-2-2--|
|--------2--------2--2--2-|--2-----2--2--2--2-2-2--|
|--0-----0--------0--0--0-|--0-----0--0--0--0-0-0--|
|--------------0----------|------------------------|
|
|  E  E  E  E  E  E  E  E    E  E  E  E  Q.     E
|--------9--9--9--9--9--9-|--9--9--9--9--9\--------|
|-10-10-10-10-10-10-10-10-|-10-10-10-10-10\--------|
|--9--9--9--9--9--9--9--9-|--9--9--9--9--9\--------|
|-------------------------|------------------------|
|-------------------------|------------------------|
|-------------------------|------------------------|


  D
   Q  Q  E E E E   Q  Q  E E E E   Q  Q  E E E E   Q  Q  E  E  E E
|-----2----2-2-2-|----2----2-2-2-|----2----2-2-2-|----2-----2--2-2--|
|-----3----3-3-3-|----3----3-3-3-|----3----3-3-3-|----3-----3--3-3--|
|-----2----2-2-2-|----2----2-2-2-|----2----2-2-2-|----2-----2--2-2--|
|--0--0----0-0-0-|-0--0----0-0-0-|-0--0----0-0-0-|-0--0-----0--0-0--|
|--------0-------|-------0-------|-------0-------|-------0----------|
|----------------|---------------|---------------|------------------|
|
|  Q  H      q     Q  Q  E e Q     W               Q  Q  E  E  Q
|-----5----------|-5-------5-----|---------------|------------------|
|-/7--7------7---|-7-------5-----|---------------|-5-------(7)------|
|-/7--7------7---|-5-------------|---------------|-5-----------5----|
|----------------|---------------|---------------|-7-----------7----|
|----------------|---------------|---------------|------------------|
|----------------|---------------|---------------|------------------|


  E
  Q  E E E E E E   Q   E E  E  E E E   Q  E E E E E E
|----0-0-0-0-0-0-|-----0-0--0--0-0-0-|----0-0-0-0-0-0-|
|----0-0-0-0-0-0-|-----0-0--0--0-0-0-|----0-0-0-0-0-0-|
|----1-1-1-1-1-1-|-----1-1--1--1-1-1-|----1-1-1-1-1-1-|
|----2-2-2-2-2-2-|-----2-2--2--2-2-2-|----2-2-2-2-2-2-|
|----2-2-2-2-2-2-|-----2-2--2--2-2-2-|----2-2-2-2-2-2-|
|-0--0-0-0-0-0-0-|-0---0-0--0--0-0-0-|-0--0-0-0-0-0-0-|
|
| Q  E E E E E E   E E E E +E  e Q     Q  E E E E Q
|----7-7-7-7-7---|-7-7-7-7-(7)-7-----|----7-7-7-7-----|
|----7-7-7-7-7---|-9-9-9-7-(7)-9-----|----7-7-7-7-----|
|----7-7-7-7-7---|-7-7-7-7-(7)-7-----|----7-7-7-7-----|
|----------------|-------------------|----------------|
|----------------|-------------------|----------------|
|----------------|-------------------|----------------|


                     A
  Q  E E  E  E E E   Q  Q   E  E E E   Q  Q  E E E E
|----0-0--0--0-0-0-|----0------0-0-0-|----0----0-0-0-||
|----0-0--0--0-0-0-|----2------2-2-2-|----2----2-2-2-||
|----1-1--1--1-1-1-|----2------2-2-2-|----2----2-2-2-||
|----2-2--2--2-2-2-|----2------2-2-2-|----2----2-2-2-||
|----2-2--2--2-2-2-|-0--0------0-0-0-|-0--0----0-0-0-||
|-0--0-0--0--0-0-0-|--------0--------|-------0-------||
|
|                                            PM--|
| Q  E E +E  E Q     Q  Q  +E  e Q     Q  Q  Q   Q
|-7--7-7-(7)-7-----|----5--(5)-5-----|-5-------------||
|-7--7-9-(9)-7-----|----5--(5)-------|---------------||
|-7--7-7-(7)-7-----|----6--(6)-------|---------------||
|------------------|-----------------|---------------||
|------------------|-----------------|---------------||
|------------------|-----------------|----0--2---4---||


 Guitar Solo
  A
  Q  Q  E E E E   Q    Q   E E E E   Q  Q  E E E E   Q    Q   E E E E
|----0----0-0-0-|------0-----0-0-0-|----0----0-0-0-|------0-----0-0-0--|
|----2----2-2-2-|------2-----2-2-2-|----2----2-2-2-|------2-----2-2-2--|
|----2----2-2-2-|------2-----2-2-2-|----2----2-2-2-|------2-----2-2-2--|
|----2----2-2-2-|------2-----2-2-2-|----2----2-2-2-|------2-----2-2-2--|
|-0--0----0-0-0-|-0----0-----0-0-0-|-0--0----0-0-0-|-0----0-----0-0-0--|
|-------0-------|----------0-------|-------0-------|----------0--------|
|
| PM                   PM------------|                    PM------|
| q  q  q   q     E E  q   q   q     q  q  q   q     E E  q   q   q
|---------------|------------------|---------------|-------------------|
|----5--3---2---|-3s5-(5)----------|----5--3---2---|-3s5-(5)-----------|
|----6--4---2---|-4s6-(6)----------|----6--4---2---|-4s6-(6)-----------|
|---------------|------------------|---------------|-------------------|
|-0-------------|------------------|-0-------------|-------------------|
|---------------|------0---2---4---|---------------|------0---2---4----|


  Q  Q  E E E E   Q   Q    E  E E E
|----0----0-0-0-|-----0-------0-0-0-|
|----2----2-2-2-|-----2-------2-2-2-|
|----2----2-2-2-|-----2-------2-2-2-|
|----2----2-2-2-|-----2-------2-2-2-|
|-0--0----0-0-0-|-0---0-------0-0-0-|
|-------0-------|----------0--------|
|
| PM
| q  q  q   q     E Q   E +E  E Q
|---------------|-------------------|
|----5--3---2---|-3s5---7-(7)-5-----|
|----6--4---2---|-4s6---------------|
|---------------|-------------------|
|-0-------------|-------------------|
|---------------|-------------------|


                          A7
  Q     Q   E E   E   E    Q     E E E E E E
|-------0-----0---0---0-|--3-----3-3-3-3-3-3--|
|-------2-----2---2---2-|--2-----2-2-2-2-2-2--|
|-------2-----2---2---2-|--2-----2-2-2-2-2-2--|
|-------2-----2---2---2-|--2-----2-2-2-2-2-2--|
|-0-----0-----0---0---0-|--0-----0-0-0-0-0-0--|
|-----------0-----------|---------------------|
|
|           |---3---|
| Q    +Q   Q   Q   Q     +E  Q.     E E Q
|-----------------------|---------------------|
|-7b8r=(7)--5-----------|---------------------|
|---------------7---6---|-(6)-4---------------|
|-----------------------|------------7-6-5----|
|-----------------------|---------------------|
|-----------------------|---------------------|


  D
  Q   Q    E  E E E    Q   Q    E  E E E   Q  Q  E E E E   Q  Q   E E  E E
|-----2-------2-2-2-|------2-------2-2-2-|----2----2-2-2-|----2-----2--2-2--|
|-----3-------3-3-3-|------3-------3-3-3-|----3----3-3-3-|----3-----3--3-3--|
|-----2-------2-2-2-|------2-------2-2-2-|----2----2-2-2-|----2-----2--2-2--|
|-0---0-------0-0-0-|--0---0-------0-0-0-|-0--0----0-0-0-|-0--0-----0--0-0--|
|----------0--------|-----------0--------|-------0-------|--------0---------|
|-------------------|--------------------|---------------|------------------|
|
| PM            PM         PM   PM   PM----|     PM  PM       PM
| q   Q   +E  E Q      Q   e E  e  E Q     q  Q  e E Q     Q  e E E Q.
|-----5---(5)-------|--5-----------5-----|----5----------|-5------5---------|
|-------------------|--------------------|---------------|------------------|
|----(5)--(5)-5-----|-(5)----------------|----5----------|-5----------------|
|-------------------|--------4-----------|---------4-----|------4---4-------|
|---------------5---|------0---(0)---5---|-0-----0---5---|----0-----5-------|
|-0-----------------|--------------------|---------------|------------------|


  E
  Q  E E E E E E   Q  E E  E  E E E   Q  E E E E E E   Q  E E  E  E E E
|----0-0-0-0-0-0-|----0-0--0--0-0-0-|----0-0-0-0-0-0-|----0-0--0--0-0-0--|
|----0-0-0-0-0-0-|----0-0--0--0-0-0-|----0-0-0-0-0-0-|----0-0--0--0-0-0--|
|----1-1-1-1-1-1-|----1-1--1--1-1-1-|----1-1-1-1-1-1-|----1-1--1--1-1-1--|
|----2-2-2-2-2-2-|----2-2--2--2-2-2-|----2-2-2-2-2-2-|----2-2--2--2-2-2--|
|----2-2-2-2-2-2-|----2-2--2--2-2-2-|----2-2-2-2-2-2-|----2-2--2--2-2-2--|
|-0--0-0-0-0-0-0-|-0--0-0--0--0-0-0-|-0--0-0-0-0-0-0-|-0--0-0--0--0-0-0--|
|
| q  Q   e E q     Q  E E  E  E Q     q  Q   E E Q     q  e E  e  E Q
|----0-----------|-3----3-(3)-0-0---|----0-----------|-3----3-(3)-0------|
|----------------|--------------0---|----0-----0-----|------0-(0)-0------|
|----------------|--------------1---|----1-----1-----|-------------------|
|----2-----2-----|-2--2----2----2---|----------------|-------------------|
|--------2---2---|------------------|--------2---2---|-------------------|
|-0--------------|------------------|-0--------------|-0--0----2----4----|


  A
  Q  Q   E  E  E  E   Q   Q     E  E E E   Q  Q   E  E E E   Q  Q   E E E E
|----0------0--0--0-|-----0--------0-0-0-|----0------0-0-0-|----0-----0-0-0--||
|----2------2--2--2-|-----2--------2-2-2-|----2------2-2-2-|----2-----2-2-2--||
|----2------2--2--2-|-----2--------2-2-2-|----2------2-2-2-|----2-----2-2-2--||
|----2------2--2--2-|-----2--------2-2-2-|----2------2-2-2-|----2-----2-2-2--||
|-0--0------0--0--0-|-0---0--------0-0-0-|-0--0------0-0-0-|-0--0-----0-0-0--||
|--------0----------|-----------0--------|--------0--------|--------0--------||
|
| q  Q  +E  E  Q      Q   E  E +E  E q     q  Q  +E  E Q     Q  E E E E Q
|----5--(5)-5-(5)---|--------5-(5)-5-----|-----------5-----|------5---5------||
|----7--(7)-7p=5----|-5------7-(7)-7-5---|-----------5-----|------5---5------||
|----6--(6)-6-(6)---|-6--(6)---------6---|----6--(6)-6-----|----6-------6----||
|-------------------|--------------------|----7--(7)-------|-----------------||
|-0-----------------|--------------------|-0---------------|-----------------||
|-------------------|--------------------|-----------------|-----------------||


 3rd Verse
  A
  Q  Q   E  E E E    Q  Q      E   E E E
|----0------0-0-0-|-----0----------0-0-0-|
|----2------2-2-2-|-----2----------2-2-2-|
|----2------2-2-2-|-----2----------2-2-2-|
|----2------2-2-2-|-----2----------2-2-2-|
|-0--0------0-0-0-|--0--0----------0-0-0-|
|--------0--------|------------0---------|
|
| q  Q  +E  E Q      Q  E  E  +E   E Q
|----5--(5)-------|--9----12-(12)--9-----|
|----5--(5)-7-5---|-10----10-(10)-10-----|
|----6--(6)-6-6---|--9--9----------------|
|-----------------|----------------------|
|-0---------------|----------------------|
|-----------------|----------------------|


   Q   Q  E E E E   Q   Q       E   E  E E
|------0----0-0-0-|-----0-----------0--0-0--|
|------2----2-2-2-|-----2-----------2--2-2--|
|------2----2-2-2-|-----2-----------2--2-2--|
|------2----2-2-2-|-----2-----------2--2-2--|
|--0---0----0-0-0-|-0---0-----------0--0-0--|
|---------0-------|-------------0-----------|
|
|  PM
|  q   Q  E E Q     Q   E   E  +E   E  q
|------5----5-----|-9------12-(12)--9--9----|
|------5--7-7-5---|--------10-(10)-10-10----|
|-(6)--6--6---6---|-9--(9)-------------9----|
|-(7)-------------|-------------------------|
|--0--------------|-------------------------|
|-----------------|-------------------------|


   Q   Q  E E E E     Q     Q    E  E  E E
|------0----0-0-0-|---------0-------0--0-0-|
|------2----2-2-2-|---------2-------2--2-2-|
|------2----2-2-2-|---------2-------2--2-2-|
|------2----2-2-2-|---------2-------2--2-2-|
|--0---0----0-0-0-|---0-----0-------0--0-0-|
|---------0-------|--------------0---------|
|
|  Q   Q  E E Q       q     q    E  E  q
|------5----5-----|-----------------9--9---|
|------5--7-7-5---|-(10)--(10)--10-10-10---|
|------6--6---6---|--(9)---(9)---9--9--9---|
|-(6)-------------|------------------------|
|-(7)-------------|------------------------|
|-----------------|------------------------|


                            A7
   Q     Q     E  E  E  E    Q     E  E  E  E  E E
|--------0--------0--0--0-|--3-----3--3--3--3--3-3--|
|--------2--------2--2--2-|--2-----2--2--2--2--2-2--|
|--------2--------2--2--2-|--2-----2--2--2--2--2-2--|
|--------2--------2--2--2-|--2-----2--2--2--2--2-2--|
|--0-----0--------0--0--0-|--0-----0--0--0--0--0-0--|
|--------------0----------|-------------------------|
|
|  E  E  E  E  E  E  E  E    E  E  E  E  E  Q.
|--9--9--9--9--9--9--9--9-|--9--9--9--9--9--9\------|
|-10-10-10-10-10-10-10-10-|-10-10-10-10-10-10\------|
|--9--9--9--9--9--9--9--9-|--9--9--9--9--9--9\------|
|-------------------------|-------------------------|
|-------------------------|-------------------------|
|-------------------------|-------------------------|


  D
   Q  Q   E  E  E E   Q  Q   E  E E E   Q   Q   E  E E E   Q  Q  E E E E
|-----2------2--2-2-|----2------2-2-2-|-----2------2-2-2-|----2----2-2-2--|
|-----3------3--3-3-|----3------3-3-3-|-----3------3-3-3-|----3----3-3-3--|
|-----2------2--2-2-|----2------2-2-2-|-----2------2-2-2-|----2----2-2-2--|
|--0--0------0--0-0-|-0--0------0-0-0-|-0---0------0-0-0-|-0--0----0-0-0--|
|---------0---------|--------0--------|---------0--------|-------0--------|
|-------------------|-----------------|------------------|----------------|
|
|  Q  Q  +E  Q.       Q  Q  +E  E E E   E E Q  +E  E E E   Q  Q  E E q
|-----5--(5)--------|-5---------------|-----5--(5)-------|----------------|
|-/5--7--(7)-7------|-7--7--(7)-7-7-7-|-7-7-7--(7)-7-7-7-|-5--7--5-5-5----|
|-/5---------5------|----5--(5)-5-5-5-|-5-5--------5-5-5-|-5--5--5-5-5----|
|-------------------|-----------------|------------------|----------------|
|-------------------|-----------------|------------------|----------------|
|-------------------|-----------------|------------------|----------------|


  E
  Q  E E E E E E   Q   E E  E  E E E   Q  E E E E E E
|----0-0-0-0-0-0-|-----0-0--0--0-0-0-|----0-0-0-0-0-0-|
|----0-0-0-0-0-0-|-----0-0--0--0-0-0-|----0-0-0-0-0-0-|
|----1-1-1-1-1-1-|-----1-1--1--1-1-1-|----1-1-1-1-1-1-|
|----2-2-2-2-2-2-|-----2-2--2--2-2-2-|----2-2-2-2-2-2-|
|----2-2-2-2-2-2-|-----2-2--2--2-2-2-|----2-2-2-2-2-2-|
|-0--0-0-0-0-0-0-|-0---0-0--0--0-0-0-|-0--0-0-0-0-0-0-|
|
| Q  E E E E E E   E E E E +Q    Q     Q  E E E E Q
|----7-7-7-7---7-|-7-7-7-7-(7)---7---|----7-7-7-7-----|
|----9-9-9-9---9-|-9-9-9-9-(9)---9---|----9-9-9-9-----|
|----7-7-7-7---7-|-7-7-7-7-(7)---7---|----7-7-7-7-----|
|----------------|-------------------|----------------|
|----------------|-------------------|----------------|
|----------------|-------------------|----------------|


                   A
  Q  E E E E E E   Q  Q  E E E E   Q  Q    E  E E E
|----0-0-0-0-0-0-|----0----0-0-0-|----0-------0-0-0-||
|----0-0-0-0-0-0-|----2----2-2-2-|----2-------2-2-2-||
|----1-1-1-1-1-1-|----2----2-2-2-|----2-------2-2-2-||
|----2-2-2-2-2-2-|----2----2-2-2-|----2-------2-2-2-||
|----2-2-2-2-2-2-|-0--0----0-0-0-|-0--0-------0-0-0-||
|-0--0-0-0-0-0-0-|-------0-------|---------0--------||
|
| Q  Q   E E q     Q  Q  E E E E   Q  E E +E  E q
|-7--------7-----|----5----5-----|-5----------5-----||
|-7--------7-9---|----5--7-7-7-5-|-5--5-7-(7)-7-5---||
|-7----------7---|----6--6---6-6-|----6-6-(6)---6---||
|----------------|---------------|------------------||
|----------------|---------------|------------------||
|----------------|---------------|------------------||


 4th Verse
  A
  Q   Q  E E E E   Q   Q  E E E E   Q   Q  E E E E   Q   Q  E E E E
|-----0----0-0-0-|-----0----0-0-0-|-----0----0-0-0-|-----0----0-0-0--|
|-----2----2-2-2-|-----2----2-2-2-|-----2----2-2-2-|-----2----2-2-2--|
|-----2----2-2-2-|-----2----2-2-2-|-----2----2-2-2-|-----2----2-2-2--|
|-----2----2-2-2-|-----2----2-2-2-|-----2----2-2-2-|-----2----2-2-2--|
|-0---0----0-0-0-|-0---0----0-0-0-|-0---0----0-0-0-|-0---0----0-0-0--|
|--------0-------|--------0-------|--------0-------|--------0--------|
|
| E E q  E E q     E E Q  H         E E q  E E q     E E Q  E E Q
|---5------------|---5------------|----------------|----------5------|
|---7-5----5-----|---7------------|---7------7-5---|-5-5--------5s===|
|---6-6--6-6-6---|---6------------|---6-6--6-6-6---|-----------------|
|--------7---7---|----------------|-----7--7-------|-----------------|
|----------------|----------------|----------------|-----------------|
|----------------|----------------|----------------|-----------------|


                    A7                 D
   Q  Q  E  E E E   Q  E  E E  E E E   Q   Q  E E E E   Q  Q    E  E E E
|-----0-----0-0-0-|-3--3--3-3--3-3-3-|-----2----2-2-2-|----2-------2-2-2--|
|-----2-----2-2-2-|-2--2--2-2--2-2-2-|-----3----3-3-3-|----3-------3-3-3--|
|-----2-----2-2-2-|-2--2--2-2--2-2-2-|-----2----2-2-2-|----2-------2-2-2--|
|-----2-----2-2-2-|-2--2--2-2--2-2-2-|-0---0----0-0-0-|-0--0-------0-0-0--|
|--0--0-----0-0-0-|-0--0--0-0--0-0-0-|--------0-------|---------0---------|
|--------0--------|------------------|----------------|-------------------|
|
|  q  q  E  E q     Q  E  E E  E Q     Q   q  E E E E   Q  E E +E  E E E
|--9--9--9-12-9---|-9----12---12-----|----------------|-5-----------------|
|-10--------------|------10---10-----|----/7----7-7-7-|----7p5-(5)-7-7-7--|
|-----------------|------------------|----/7----7-7-7-|----7-------7-7-7--|
|-----------------|------------------|----------------|-------------------|
|-----------------|------------------|----------------|-------------------|
|-----------------|------------------|----------------|-------------------|


                                  E
  Q  Q  E E E E   Q  Q  E E E E   Q  E E  E  E E E   Q   E E  E  E E E
|----2----2-2-2-|----2----2-2-2-|----0-0--0--0-0-0-|-----0-0--0--0-0-0--|
|----3----3-3-3-|----3----3-3-3-|----0-0--0--0-0-0-|-----0-0--0--0-0-0--|
|----2----2-2-2-|----2----2-2-2-|----1-1--1--1-1-1-|-----1-1--1--1-1-1--|
|-0--0----0-0-0-|-0--0----0-0-0-|----2-2--2--2-2-2-|-----2-2--2--2-2-2--|
|-------0-------|-------0-------|----2-2--2--2-2-2-|-----2-2--2--2-2-2--|
|---------------|---------------|-0--0-0--0--0-0-0-|-0---0-0--0--0-0-0--|
|
| Q  Q  E Q   E   Q  Q  E E Q     Q  E E +E  Q   E   Q.    E +Q    Q
|---------------|---------5-----|----0-0-(0)-------|-3-----0-(0)--------|
|----7----7---7-|-5--7----7-----|----0-0-(0)-0---0-|-0-----0-(0)--------|
|----5----5---5-|-5--5----------|----1-1-(1)-1---1-|-1-----1-(1)--------|
|---------------|---------------|------------2---2-|--------------------|
|---------------|---------------|------------------|--------------------|
|---------------|---------------|------------------|--------------------|


                                     A
  Q  E E E E E E   Q   E E E E E E   Q  Q   E  E E E
|----0-0-0-0-0-0-|-----0-0-0-0-0-0-|----0------0-0-0-|
|----0-0-0-0-0-0-|-----0-0-0-0-0-0-|----2------2-2-2-|
|----1-1-1-1-1-1-|-----1-1-1-1-1-1-|----2------2-2-2-|
|----2-2-2-2-2-2-|-----2-2-2-2-2-2-|----2------2-2-2-|
|----2-2-2-2-2-2-|-----2-2-2-2-2-2-|-0--0------0-0-0-|
|-0--0-0-0-0-0-0-|-0---0-0-0-0-0-0-|--------0--------|
|
| Q  E E E E q     E E E E E E Q     Q  Q  +E  e Q
|----------------|-0-0---0---0-----|-----------------|
|----3-3---3-3---|-0-0---0---0-----|-----------7-----|
|----1-1---1-1---|-1-1---1---1-----|----6--(6)-------|
|----2-2---2-2---|-----------------|----7--(7)-------|
|----------------|-----------------|-----------------|
|----------------|-----------------|-----------------|


  Q  Q  E E E E   Q  Q  E E E E   Q  Q  E E E E
|----0----0-0-0-|----0----0-0-0-|----0----0-0-0-|
|----2----2-2-2-|----2----2-2-2-|----2----2-2-2-|
|----2----2-2-2-|----2----2-2-2-|----2----2-2-2-|
|----2----2-2-2-|----2----2-2-2-|----2----2-2-2-|
|-0--0----0-0-0-|-0--0----0-0-0-|-0--0----0-0-0-|
|-------0-------|-------0-------|-------0-------|


  Q  E E E E E E   Q  Q  H      +W
|----0-0-0-0-0-0-|-0--0--0----|-(0)----*|
|----2-2-2-2-2-2-|-2--2--2----|-(2)----*|
|----2-2-2-2-2-2-|-2--2--2----|-(2)----*|
|----2-2-2-2-2-2-|-2--2--2----|-(2)----*|
|-0--0-0-0-0-0-0-|-0--0--0----|-(0)----*|
|----------------|------------|--------*|


Duration Legend
---------------
W - whole; H - half; Q - quarter; E - 8th; S - 16th; T - 32nd; X - 64th; a - acciaccatura
+ - note tied to previous; . - note dotted; .. - note double dotted
Uncapitalized letters represent notes that are staccato (1/2 duration)
Irregular groupings are notated above the duration line
Duration letters will always appear directly above the note/fret number it represents the
duration for.  Duration letters with no fret number below them represent rests.  Multi-
bar rests are notated in the form Wxn, where n is the number of bars to rest for.  Low
melody durations appear below the staff

Tablature Legend
----------------
 h   - hammer-on
 p   - pull-off
 b   - bend
 pb  - pre-bend
 r   - bend release (if no number after the r, then release immediately)
 /\  - slide into or out of (from/to "nowhere")
 s   - legato slide
 S   - shift slide
  - natural harmonic
[n]  - artificial harmonic
n(n) - tapped harmonic
 ~   - vibrato
 tr  - trill
 T   - tap
 TP  - trem. picking
 PM  - palm muting
\n/  - tremolo bar dip; n = amount to dip
 \n  - tremolo bar down
 n/  - tremolo bar up
/n\  - tremolo bar inverted dip
 =   - hold bend; also acts as connecting device for hammers/pulls
 <>  - volume swell (louder/softer)
 x   - on rhythm slash represents muted slash
 o   - on rhythm slash represents single note slash

Misc Legend
-----------
 |  - bar
||  - double bar
||o - repeat start
o|| - repeat end
*|  - double bar (ending)
 :  - bar (freetime)
 $  - Segno
 &  - Coda
Tempo markers -  = BPM(8/16=s8/s16), where s8 = swing 8ths, s16 = swing 16ths
Добавлено: 08.05.2015
Другие материалы по этой песне:

Страница создана 24.02.2012
http://primanota.ru/elvis-presley/thats-all-right-chords.htm
Привет, Гость.
Предлагаем пройти революционный курс по гитаре.
Подарок от PrimaNota.Ru, забирай!