PrimaNota.ru - самый крупный в мире бесплатный архив песенных текстов, аккордов, табулатур и нот


Elton John - That s why they call it the blues - бас-таба, видео

Регистрация Запомнить меня
Войти через:  Facebook Google Twitter Vk Yandex Mail.ru

Elton John - That s why they call it the blues - бас-таба, видео

Печатать
Просмотров: 105
Уроки эстрадного вокала в Санкт-Петербурге


That's Why They Call It The Blues.btab
Elton John
TablEdited by Jan Bjorklund for Juice Ten

Basstab by Jan Bjorklund, Finland; 
jani_bjorklund@yahoo.se 
You are welcome to request for basstabs or standard notation 
Bienvenidos a pedirme transcripciones para el bajo 

Tuning : E A D G 	Time Signature: 6/8

 tempo 120   |            |           |            |           |            
|------------------------|------------------------|------------------------|
|--------------------0---|2-------------------2---|3-----------------------|
|3-----------------------|------------------------|------------------------|
|------------------------|------------------------|------------------------|

 |           |            |           |            |           |            
|------------------------|------------------------|------------------------|
|--------2-------0-------|--------------------0---|2-----------------------|
|------------------------|3-----------------------|------------------------|
|------------------------|------------------------|------------------------|

 |           |            |           |            |           |            
|------------------------|------------------------|0-----------------------|
|3-----------------------|----------------1-------|--------------------0---|
|------------------------|------------------------|------------------------|
|------------------------|------------------------|------------------------|

 |           |            |           |            |           |            
|0-----------------------|------------------------|------------------------|
|--------------------0---|2-----------------------|3---------------2---0---|
|------------------------|------------------------|------------------------|
|------------------------|------------------------|------------------------|

 |           |            |           |            |           |            
|------------2-----------|0-------0---2-------0---|------------2-----------|
|------------------------|------------------------|------------------------|
|3-------3---------------|------------------------|3-------3---------------|
|------------------------|------------------------|------------------------|

 |           |            |           |            |           |            
|0-----------------------|0-----------------------|0-----------0-----------|
|------------2---0-------|--------------------0---|----------------0-------|
|------------------------|------------------------|--------------------3---|
|------------------------|------------------------|------------------------|

 |           |            |           |            |           |            
|------------------------|------------------------|------------2-----------|
|----------------4-------|3-----------3---2---0---|------------------------|
|2-------------------2---|------------------------|3-------3---------------|
|------------------------|------------------------|------------------------|

 |           |            |           |            |           |            
|0-------0---2-----------|------------2-----------|0-------0---------------|
|------------------------|------------------------|----------------2---0---|
|------------------------|3-------3---------------|------------------------|
|------------------------|------------------------|------------------------|

 |           |            |           |            |           |            
|--------------------0---|0-----------0-----------|--------------------4---|
|----------------0-------|------------------------|------------1---4-------|
|------------2-----------|------------------------|2-------2---------------|
|3-------3---------------|------------------------|------------------------|

 |           |            |           |            |           |            
|2-----------------------|------------------------|------------------------|
|------------4-----------|2-----------------------|0-----------------------|
|------------------------|------------------------|----------------0---2---|
|------------------------|------------------------|------------------------|

 |           |            |           |            |           |            
|------------------------|------------------------|------------------------|
|------------------------|------------------------|----------------0-------|
|3-----------------------|------------------------|------------------------|
|----------------0---2---|0-------0-------1---2---|3-----------3-------2---|

 |           |            |           |            |           |            
|------------------------|------------------------|------------------------|
|------------------------|------------------------|------------------------|
|------------------------|0-----------0-----------|------------------------|
|3-----------3---2---3---|--------------------3---|1---------------1---1---|

 |           |            |           |            |           |            
|------------------------|------------------------|------------------------|
|------------------------|------------------------|------------------------|
|------------------------|------------------------|------------------------|
|3-----------2---3---3---|3---------------2---3---|3-----------3-----------|

 |           |            |           |            |           |            
|------------------------|------------------------|------------------------|
|------------------------|----------------5-------|----------------5---5---|
|0-----------2-----------|3-------------------3---|2-----------------------|
|------------------------|------------------------|------------------------|

 |           |            |           |            |           |            
|------------------------|------------------------|------------------------|
|3-----------3-----------|3-------2-------0-------|----------------2---3---|
|------------------------|------------------------|3-----------------------|
|------------------------|------------------------|------------------------|

 |           |            |           |            |           |            
|------------------------|------------------------|------------------------|
|5-----------5-------4---|3-----------3-------3---|--------2-------3---4---|
|------------------------|------------------------|3-----------------------|
|------------------------|------------------------|------------------------|

 |           |            |           |            |           |            
|------------------------|------------------------|------------------------|
|5-----------5-----------|5---------------5---6---|7-------------------7---|
|------------------------|--------5---------------|----------------5-------|
|------------------------|------------------------|------------------------|

 |           |            |           |            |           |            
|------------------------|------------------------|------------------------|
|------------------------|3-----------------------|3-------3-------3---3---|
|------------------------|------------------------|------------------------|
|0-------0-------0---0---|------------------------|------------------------|

 |           |            |           |            |           |            
|------------------------|------------------------|------------------------|
|4-------4-------4-------|4-------4-------4---4---|3---------------3---3---|
|--------------------5---|------------------------|------------------------|
|------------------------|------------------------|------------------------|

 |           |            |           |            |           |            
|------------------------|------------------------|------------------------|
|5-----------------------|------------------------|2-----------------------|
|------------5-----------|3-----------------------|------------------------|
|------------------------|------------------------|------------------------|

 |           |            |           |            |           |            
|------------------------|------------------------|------------------------|
|3-------------------3---|------------   and   so   on ........------------|
|------------------------|------------------------|------------------------|
|------------------------|------------------------|------------------------|

Transcribe  6.0 transcription http://www.seventhstring.demon.co.uk/
Created with TablEdit http://www.tabledit.com/
http://www.geocities.com/jani_bjorklund/janis.html1058405404377


Добавлено: 01.01.2014
Другие материалы по этой песне:
  • Аккорды и текст

Страница создана 01.01.2014
http://primanota.ru/elton-john/that-s-why-they-call-it-the-blues-chords.htm
Привет, Гость.
Предлагаем пройти революционный курс по гитаре.
Подарок от PrimaNota.Ru, забирай!