PrimaNota.ru - самый крупный в мире бесплатный архив песенных текстов, аккордов, табулатур и нот


Elton John - Slave - текст песни, бас-таба, видео

Регистрация Запомнить меня
Войти через:  Facebook Google Twitter Vk Yandex Mail.ru

Elton John - Slave - текст песни, бас-таба, видео

Печатать
Просмотров: 74
Уроки эстрадного вокала в Санкт-Петербурге
Bass Start - 00:04


[Intro]
G|----|---------------|----------------|
D|----|-5---5---------|----------------|
A|-3h5|-------3h5--3-5|-------3h5--3h5-|
E|----|---------------|-3---3----------|

[Verse 1]
G|------------|------------|------------|------------|
D|-5---5------|-5---5------|-5---5------|-5---5------|
A|-------5---5|-------5---5|-------5---5|-------5-7--|
E|------------|------------|------------|------------|

G|------------|------------|------------|------------|
D|-5----------|-5---5------|-5---5------|-5---5------|
A|-----5-5---5|-------5---5|-------5---5|-------5-7--|
E|------------|------------|------------|------------|

G|------------|------------|------------|------------|
D|-5---5------|-5---5------|-5---5------|-5----------|
A|-------5---5|-------5---5|-------5-7--|-------0--2-|
E|------------|------------|------------|----3-------|

G|------------|------------------------|-------------------------|
D|------------|------------------------|-------5--------5--------|
A|-3---3-3-2-3|-5------5---3-3--2-0----|---2-5---5-5/7-----7-5-7-|
E|------------|------5--------------3--|-3-----------------------|

[Verse 2]
G|------------|------------|------------|-------------|
D|-5---5------|-5---5------|-5---5------|-5---5-------|
A|-------5---5|-------5---5|-----------5|-------3-5--5|
E|------------|------------|-------3----|-------------|

G|------------|------------|------------|-------------|
D|-5---5------|-5---5------|-5---5------|-5---5-------|
A|-------5---5|-------5---5|-------5---5|-------3-5--5|
E|------------|------------|------------|-------------|

G|------------|------------|------------|-------------|
D|-5---5------|-5---5------|-5---5------|-5---5-------|
A|-------5---5|-------5---5|-------5---5|-------3-5--4|
E|------------|------------|------------|-------------|

G|--------------|----------------------|---------------.--.-|
D|--------------|----------------------|---------5-----5--4-|
A|-3---3-3-2-3-4|-5-----5---3-3---5----|-0-2--5------5------|
E|--------------|-----5-------------3--|--------------------|

[Chorus]
G|-------------|------------|-------------|------------|
D|-2-----2-----|------------|-------------|------------|
A|-----2----5--|-3-----3---5|-------2--3-4|-5-----5--6-|
E|------------5|-----5------|-3---3-------|-----5------|

G|------------|------------|-----------------------------|
D|------------|------------|-5--2------------------------|
A|-7-----7--5-|-3-----3--5-|-------5--2------------------|
E|-----7------|-----3------|-------------5--3--0------2-0|

[Verse 3]
G|----------------|----------------|--------------------------------|
D|----------------|----------------|------------3-4-5----(5-3)-2----|
A|-------3h5--3h5-|-------3h5--3h5-|-------3h5-------------------5--|
E|-3---3----------|-3---3----------|-3---3-------------------------0|

G|----------------|----------------|------------------|--------------|
D|----------------|----------------|------------(3----|-5---5-5------|
A|-------3h5--3h5-|-------3h5--3h5-|-------3h5-----5)-|----------3h5-|
E|-3---3----------|-3---3----------|-3---3------------|--------------|

G|----------------|----------------|----------------|--------------|
D|----------------|-5---5----------|----------------|-5---5--------|
A|-------3h5--3h5-|-------3h5--3h5-|-------3h5--3h5-|-------3h5----|
E|-3---3----------|----------------|-3---3----------|------------3-|

G|-------------|--------------------|------------|--------------|
D|-------------|--------------------|------------|-5-7-5------5-|
A|-3---3-3--2-3|-5-----5--5-4-3--2-0|-------5---5|--------5-7---|
E|-------------|-----5--------------|-3---3------|--------------|

[Chorus]
G|-------------|-------------|-------------|-------------|
D|-2-----2-----|-------------|-------------|-------------|
A|-----2----5--|-3-----3--3-5|-------2--3-4|-5-----5--5-6|
E|------------5|-----5-------|-3---3-------|-----5-------|

G|------------|------------|----------------------------|
D|------------|------------|-5--2----------------------3|
A|-7-----7--5-|-3-----3--5-|-------5--2-----------------|
E|-----7------|-----3------|-------------5--3--0--------|

[Instrumental]
G|------------|--------------|-------5h7----|-------------|
D|-5---5------|-5---5--------|-5---5--------|-5---5-------|
A|-------5---5|-------5--5h7-|------------5-|-------7-5--7|
E|------------|--------------|--------------|-------------|

G|------------|------------|-------------|------------|
D|-5---5------|-5---5------|-5---5-------|-5----------|
A|-------5---5|-------5---5|-------7-5-7-|------7-5---|
E|------------|------------|-------------|-----------6|

G|-------------|-------------|-------------|------------|
D|----------2--|-5---5-------|-5---5-------|-5----------|
A|-------5----5|-------5--7-5|-------3-5--5|-------0--2-|
E|-3---3-------|-------------|-------------|----3-------|

G|-------------|--------------------|-----------------------.--.-|
D|-------------|--------------------|---------5-------5-----5--4-|
A|-3-----3--3-4|-5-----5--5-4-3--2-0|----3/5------5-7---7-5------|
E|-----3-------|-----5--------------|-3--------------------------|

[Chorus]
G|-------------|-------------|-------------|------------|------------|-------------|
D|-2-----2-----|-------------|-------------|------------|------------|-------------|
A|-----2----5--|-3-----3--4-5|-------2--3-4|-5-----5--6-|-7-----7--5-|-3-----3--5-5|
E|------------5|-----5-------|-3---3-------|-----5------|-----7------|-----3-------|

G|------------|-------------|-------------|-------------|--------------|-------------|
D|-2-----2----|-------------|-------------|-------------|---9----------|-------------|
A|-----2----5-|-3---3-3--4-5|-------2--3-4|-5---5--5---6|-7---7--7--5-5|-3---3-3--4-5|
E|------------|-------------|-3---3-------|---5---------|--------------|-------------|

G|---------------------------|
D|-5--2----------------------|
A|-------5--2----------------|
E|-------------5--3--0-------|

[Outro]
G|------------------------------|------------------------------| (x2)
D|----------------5----(5-3)-2--|----------------5----(5-3)-2--|
A|---------2)-3-5--------------5|---------2)-3-5--------------5|
E|-3----(3----------------------|-3----(3----------------------|

G|------------------------------|----------------------------| 
D|----------------5----(5-3)-2--|----------------5-----------|
A|---------2)-3-5--------------5|---------2)-3-5-----------2-|
E|-3----(3----------------------|-3----(3-------------3-5----|

G|--------5)-----|-------------------------|--------------------|----------------|
D|-----(5--------|--------------------5----|-------------.---2--|----5-----------|
A|-3----------3-4|-5-----5--5-4-3---5-----5|-------2--3--5-5---5|-------(5-2)-3-5|
E|---------------|-----5-------------------|-3---5--------------|-3--------------|

(repeat until the end)
G|--------------------------------|--------------------------------| 
D|----------------5----(5-5-2)---2|----------------5----(5-5-2)---2|
A|---------2)-3-5--------------5--|---------2)-3-5--------------5--|
E|-3----(3------------------------|-3----(3------------------------|



************************

| / slide up
| h hammer-on
| . staccato
| ( ) fast

************************
Добавлено: 17.11.2017
Другие материалы по этой песне:
  • Аккорды и текст

Страница создана 16.03.2012
http://primanota.ru/elton-john/slave-chords.htm
Привет, Гость.
Предлагаем пройти революционный курс по гитаре.
Подарок от PrimaNota.Ru, забирай!