PrimaNota.ru - самый крупный в мире бесплатный архив песенных текстов, аккордов, табулатур и нот


Elton John - Made In England - текст песни, бас-таба, видео

Регистрация Запомнить меня
Войти через:  Facebook Google Twitter Vk Yandex Mail.ru

Elton John - Made In England - текст песни, бас-таба, видео

Печатать
Просмотров: 50
Уроки эстрадного вокала в Санкт-Петербурге
Bass starts on 00:11
Intro :
G|---------------------------------|---------------------------------|
D|---------------------------------|---------------------------------|
A|3-------3-------3-------3--------|3-------3-----------2---3--------|
E|---------------------------------|----------------3----------------|

G|---------------------------------|---------------------------------|
D|---------------------------------|---------------------------------|
A|3-------3-------3-------3--------|3-------3-------3-------0---2----|
E|---------------------------------|--------------------3------------|

G|---------------------------------|---------------------------------|
D|---------------------------------|---------------------------------|
A|3---3---3-------3---3---3---3----|3---3---3-------3-------0---2----|
E|---------------------------------|---------------------------------|

G|---------------------------------|---------------------------------|
D|---------------------------------|---------------------------------|
A|3---3---3---3---3---3---3---3----|3---3---3---3---3----------------|
E|---------------------------------|------------------------3--------|

Verse 1 :
G|---------------------------------|---------------------------------|
D|---------------------------------|--------------------1---0--------|
A|--------------------0------------|3-------3-------3-----------3----|
E|1-------1-------1-------3---1----|---------------------------------|

G|---------------------------------|---------------------------------|
D|---------------------------------|---------------------------------|
A|1-------1-------1---3---1---0----|--------------------0------------|
E|---------------------------------|1-------1-------1-------3---1----|

G|---------------------------------|---------------------------------|
D|---------------------------------|---------------------------------|
A|--------------------0------------|3-------3-------3---3---3--------|
E|1-------1-------1-------3---1----|----------------------------2----|

G|---------------------------------|---------------------------------|
D|---------------------------------|---------------------------------|
A|---------------------------------|2---2---2---2---3---3---3---4----|
E|3---3---3---3---5---5---5---5----|---------------------------------|

G|---------------------------------|---------------------------------|
D|---------------------------------|---------------------------------|
A|5-------5-------5---5---5---5----|---------------------------------|
E|---------------------------------|5-------5-------5---5---5---5----|

G|---------------------------------|---------------------------------|
D|---------------------------------|---------------------------------|
A|---------------------------------|2-------2-------2---2---2---2----|
E|6-------6-------6---6---6---6----|---------------------------------|

G|---------------------------------|---------------------------------|
D|---------------------------------|---------------------------------|
A|3-------3-------3-------3--------|3-------3-------3----------------|
E|---------------------------------|------------------------1---2----|

Chorus :
G|---------------------------------|---------------------------------|
D|---------------------------------|--------------------3------------|
A|----------------0---0---0---0----|1-------1-------5-------1---2----|
E|1---1---3---4--------------------|---------------------------------|

G|---------------------------------|---------------------------------|
D|---------------------------------|----------------------------3----|
A|3-------3-------3---3---3--------|--------------------3---5--------|
E|----------------------------3----|1-------1---1---3----------------|

G|---------------------------------|---------------------------------|
D|---------------------------------|---------------------------------|
A|----------------0---0---0---0----|1-------1-------1---1---1---2----|
E|1---1---3---4--------------------|---------------------------------|

G|---------------------------------|---------------------------------|
D|---------------------------------|---------------------------------|
A|3-------3-------3---3---3--------|--------------------3---5---3----|
E|----------------------------3----|1-------1-------1----------------|

Verse 2 :
G|---------------------------------|---------------------------------|
D|---------------------------------|--------------------1---0--------|
A|--------------------0------------|3-------3-------3-----------3----|
E|1-------1-------1-------3---1----|---------------------------------|

G|---------------------------------|---------------------------------|
D|---------------------------------|---------------------------------|
A|1-------1-------1---3---1---0----|--------------------0------------|
E|---------------------------------|1-------1-------1-------3---1----|

G|---------------------------------|---------------------------------|
D|---------------------------------|---------------------------------|
A|--------------------0------------|3-------3-------3---3---3--------|
E|1-------1-------1-------3---1----|----------------------------2----|

G|---------------------------------|---------------------------------|
D|---------------------------------|---------------------------------|
A|---------------------------------|2---2---2---2---3---3---3---4----|
E|3---3---3---3---5---5---5---5----|---------------------------------|

G|---------------------------------|---------------------------------|
D|---------------------------------|---------------------------------|
A|5-------5-------5---5---5---5----|---------------------------------|
E|---------------------------------|5-------5-------5---5---5---5----|

G|---------------------------------|---------------------------------|
D|---------------------------------|---------------------------------|
A|---------------------------------|2-------2-------2---2---2---2----|
E|6-------6-------6---6---6---6----|---------------------------------|

G|---------------------------------|---------------------------------|
D|---------------------------------|---------------------------------|
A|3-------3-------3-------3--------|3-------3-------3-------3--------|
E|---------------------------------|---------------------------------|

Chorus :
G|---------------------------------|---------------------------------|
D|---------------------------------|---------------------------------|
A|----------------0---0---0---0----|1-------1-------1-------1---2----|
E|1---1---3---4--------------------|--------------------1------------|

G|---------------------------------|---------------------------------|
D|---------------------------------|----------------------------3----|
A|3-------3-------3---3---3--------|--------------------3---5--------|
E|----------------------------3----|1-------1---1---3----------------|

G|---------------------------------|---------------------------------|
D|---------------------------------|---------------------------------|
A|----------------0---0---0---0----|1-------1-------1-------1---2----|
E|1---1---3---4--------------------|--------------------1------------|

G|---------------------------------|---------------------------------|
D|---------------------------------|---------------------------------|
A|3-------3-------3---3------------|---------------------------------|
E|------------------------3---2----|1-------1-------1---1---1---1----|

Interlude :
G|---------------------------------|---------------------------------|
D|---------------------------------|---------------------------------|
A|3---3---3-------3---3---3--------|3---3---3-------3---3---3--------|
E|---------------------------------|---------------------------------|

G|---------------------------------|---------------------------------|
D|---------------------------------|--------5---7---5----------------|
A|3---3---3-------3---3---3--------|5---7---------------3---3--------|
E|---------------------------------|---------------------------------|

G|---------------------------------|---------------------------------|
D|---------------------------------|---------------------------------|
A|3---3---3-------3---3---3--------|3---3---3-------3---3---3--------|
E|---------------------------------|---------------------------------|

G|---------------------------------|4h5---4h5---4h5---4h5---4h5------|
D|---------------------------------|---------------------------------|
A|3---3---3-------3---3---3--------|---------------------------------|
E|---------------------------------|---------------------------------|

Verse 3 :
G|---------------------------------|---------------------------------|
D|---------------------------------|--------------------1---0--------|
A|--------------------0------------|3-------3-------3-----------3----|
E|1-------1-------1-------3---1----|---------------------------------|

G|---------------------------------|---------------------------------|
D|---------------------------------|---------------------------------|
A|1-------1-------1---3---1---0----|--------------------0------------|
E|---------------------------------|1-------1-------1-------3---1----|

G|---------------------------------|---------------------------------|
D|---------------------------------|---------------------------------|
A|--------------------0------------|3-------3-------3---3------------|
E|1-------1-------1-------3---1----|------------------------1---2----|

G|---------------------------------|---------------------------------|
D|---------------------------------|---------------------------------|
A|---------------------------------|2---2---2---2---3---3---3---4----|
E|3---3---3---3---5---5---5---5----|---------------------------------|

G|---------------------------------|---------------------------------|
D|---------------------------------|---------------------------------|
A|5-------5-------7---8---7---5----|---------------------------------|
E|---------------------------------|5-------5-------5---5---5---5----|

G|---------------------------------|---------------------------------|
D|---------------------------------|---------------------------------|
A|1-------1-------1---1-------1----|2-------2-------2---2---2---2----|
E|------------------------1--------|---------------------------------|

G|---------------------------------|---------------------------------|
D|---------------------------------|---------------------------------|
A|3-------3-------3-------3--------|3-------3-------3-------3--------|
E|---------------------------------|---------------------------------|

Chorus :
G|---------------------------------|---------------------------------|
D|---------------------------------|---------------------------------|
A|----------------0---0---0---0----|1-------1-------1-------1---2----|
E|1---1---3---4--------------------|--------------------1------------|

G|---------------------------------|---------------------------------|
D|---------------------------------|---------------------------------|
A|3-------3-------3---3------------|--------------------3---5--------|
E|------------------------3---2----|1-------1---1---5-----------1----|

G|---------------------------------|---------------------------------|
D|---------------------------------|---------------------------------|
A|----------------0---0---0---0----|1-------1-------1-------1---2----|
E|1---1---3---4--------------------|--------------------1------------|

G|---------------------------------|---------------------------------|
D|---------------------------------|---------------------------------|
A|3-------3-------3---3---3--------|---------------------------------|
E|----------------------------0----|1---1---1---1---1---1---2---2----|

Verse 4 :
G|---------------------------------|---------------------------------|
D|---------------------------------|---------------------------------|
A|---------------------------------|5-------5-------5---5---5---4----|
E|3-------3-------3---3---3---3----|---------------------------------|

G|---------------------------------|---------------------------------|
D|---------------------------------|---------------------------------|
A|3-------3-------3---3---3---0----|--------------------7---5--------|
E|---------------------------------|3-------3-------3-----------7----|

G|---------------------------------|---------------------------------|
D|---------------------------------|---------------------------------|
A|------------------------3---4----|5-------5-------5---5------------|
E|3-------3-------3---3------------|------------------------3---4----|

G|---------------------------------|---------------------------------|
D|---------------------------------|---------------------------------|
A|---------------------------------|4-------4---0---5-------5---6----|
E|5---5---5---5---7---7---7---7----|---------------------------------|

G|---------------------------------|---------------------------------|
D|---------------------------------|---------------------------------|
A|7-------7-------7---7---0---1----|2-------2-------2---2---2---2----|
E|---------------------------------|---------------------------------|

G|---------------------------------|---------------------------------|
D|---------------------------------|---------------------------------|
A|3-------3-------3---3---3---3----|4---4---4---4---4---4---4---4----|
E|---------------------------------|---------------------------------|

G|---------------------------------|---------------------------------|
D|---------------------------------|---------------------------------|
A|5---5---5---5---5---5---5---5----|5---5---5---5---5---5------------|
E|---------------------------------|------------------------0---2----|

Chorus :
G|---------------------------------|---------------------------------|
D|---------------------------------|---------------------------------|
A|--------0---1---2---2---2---2----|3-------3-------3-------3---4----|
E|3---3----------------------------|--------------------3------------|

G|---------------------------------|---------------------------------|
D|---------------------------------|---------------------------------|
A|5-------5-------5---5------------|----------------------------5----|
E|------------------------4---4----|3-------3-------3---3---3--------|

G|---------------------------------|---------------------------------|
D|---------------------------------|---------------------------------|
A|--------0---1---2---2---2---2----|3-------3-------3-------3---4----|
E|3---3----------------------------|--------------------3------------|

G|---------------------------------|---------------------------------|
D|---------------------------------|---------------------------------|
A|5-------5-------5-------5--------|---------------------------------|
E|----------------------------4----|3-------3-------3---3---3---3----|

G|---------------------------------|---------------------------------|
D|---------------------------------|---------------------------------|
A|--------0---1---2---2---2---2----|3-------3-------3-------3---4----|
E|3---3----------------------------|--------------------3------------|

G|---------------------------------|---------------------------------|
D|---------------------------------|---------------------------------|
A|5-------5-------5-------5--------|----------------1/3-5---7--------|
E|----------------------------4----|3-------3-------------------7----|

G|---------------------------------|---------------------------------|
D|---------------------------------|---------------------------------|
A|--------0---1---2---2---2---2----|3-------3-------3-------3---4----|
E|3---3----------------------------|--------------------3------------|

G|---------------------------------|---------------------------------|
D|---------------------------------|---------------------------------|
A|5-------5-------5-------5---/----|10--10--10--10--10--10--10--\----|
E|---------------------------------|---------------------------------|

Outro :
G|---------------------------------|---------------------------------|
D|---------------------------------|---------------------------------|
A|3-------3-------3---3---3--------|3-------3-------3---3---3--------|
E|---------------------------------|---------------------------------|

G|---------------------------------|---------------------------------|
D|---------------------------------|---------------------------------|
A|3-------3-------3---3---3--------|3-------3-------3---3---3--------|
E|---------------------------------|---------------------------------|

G|---------------------------------|---------------------------------|
D|---------------------------------|---------------------------------|
A|3-------3-------3---3---3--------|3-------3-------3---3---3--------|
E|---------------------------------|---------------------------------|

G|---------------------------------|--------5---7-/-8---7------------|
D|---------------------------------|5---8-------------------5---3----|
A|3-------3-------3---3---3--------|---------------------------------|
E|---------------------------------|---------------------------------|

G|---------------------------------|---------------------------------|
D|---------------------------------|---------------------------------|
A|3-------3-------3---3---3--------|3-------3-------3---3---3--------|
E|---------------------------------|---------------------------------|

G|---------------------------------|---------------------------------|
D|---------------------------------|---------------------------------|
A|3-------3-------3---3---3--------|3-------3-------3---3---3--------|
E|---------------------------------|---------------------------------|

G|---------------------------------|---------------------------------|
D|---------------------------------|---------------------------------|
A|3-------3-------3---3---3--------|3-------3-------3---3---3--------|
E|---------------------------------|---------------------------------|

G|---------------------------------|---------------------------------|
D|---------------------------------|---------------------------------|
A|3-------3-------3---3---3--------|6---7---6---7---2---3---3---3----|
E|---------------------------------|---------------------------------|

G|---------------------------------|---------------------------------|
D|---------------------------------|---------------------------------|
A|3-------3-------3---3---3--------|3-------3-------3---3---3--------|
E|---------------------------------|---------------------------------|

G|---------------------------------|---------------------------------|
D|---------------------------------|---------------------------------|
A|3-------3-------3---3---3--------|3-------3-------3---3---3--------|
E|---------------------------------|---------------------------------|

G|---------------------------------|---------------------------------|
D|---------------------------------|---------------------------------|
A|3-------3-------3---3---3--------|3-------3-------3---3---3--------|
E|---------------------------------|---------------------------------|

G|---------------------------------|---------------------------------|
D|---------------------------------|---------------------------------|
A|3-------3-------3---3---3--------|3-------------------0---1---2----|
E|---------------------------------|----0---1---2---3----------------|

G|---------------------------------|---------------------------------|
D|---------------------------------|---------------------------------|
A|3-------3-------3---3---3--------|3-------3-------3---3---3--------|
E|---------------------------------|---------------------------------|

G|---------------------------------|---------------------------------|
D|---------------------------------|---------------------------------|
A|3-------3-------3---3---3--------|3-------3-------3---3---3--------|
E|---------------------------------|---------------------------------|

G|---------------------------------|---------------------------------|
D|---------------------------------|---------------------------------|
A|3-------3-------3---3---3--------|3-------3-------3---3---3--------|
E|---------------------------------|---------------------------------|

G|---------------------------------|---------------------------------|
D|---------------------------------|---------------------------------|
A|3-------3-------3---3---3--------|3-------3-------4---6---3--------|
E|---------------------------------|---------------------------------|

G|---------------------------------|---------------------------------|
D|---------------------------------|--------------------1---0--------|
A|3-------3-------3---3---3--------|3-------3-------3----------------|
E|---------------------------------|---------------------------------|

G|---------------------------------|---------------------------------|
D|---------------------------------|--------------------1---3--------|
A|3-------3-------3---3---3--------|3-------3-------3----------------|
E|---------------------------------|---------------------------------|

G|---------------------------------|---------------------------------|
D|---------------------------------|--------------------1---0--------|
A|3-------3-------3---3---3--------|3-------3-------3----------------|
E|---------------------------------|---------------------------------|

G|---------------------------------|---------------------------------|
D|-----------------------------/---|8-------7-------5-------3--------|
A|3-------3-------3---3---3--------|---------------------------------|
E|---------------------------------|---------------------------------|

(repeat this)
G|---------------------------------|---------------------------------|
D|---------------------------------|---------------------------------|
A|3-------3-------3---3---3--------|3-------3-------3---3---3--------|
E|---------------------------------|---------------------------------|
Добавлено: 17.11.2017
Другие материалы по этой песне:

Страница создана 02.04.2012
http://primanota.ru/elton-john/made-in-england-chords.htm
Привет, Гость.
Предлагаем пройти революционный курс по гитаре.
Подарок от PrimaNota.Ru, забирай!