PrimaNota.ru - самый крупный в мире бесплатный архив песенных текстов, аккордов, табулатур и нот


Elliott Smith - New Disaster - текст песни, таба, видео

Регистрация Запомнить меня
Войти через:  Facebook Google Twitter Vk Yandex Mail.ru

Elliott Smith - New Disaster - текст песни, таба, видео

Печатать
Просмотров: 100
Авторы музыки: Elliott Smith
Авторы текста: Elliott Smith
Elliott Smith - New Disaster
from Basement II Demos
tabbed by lukas kalmar

tuning: EADGHC (i think)
capo on 3
rythm: 3/4
kind of fingerpicking, you can pick it sloppy and it will sound just fine

(A) intro + chorus part

C|--0-0-0-0-0-0-0-0-0-0-0-0-0-0-0-0-0-0-0-0-0-0-0-----------------|
B|--0-0-0-0-0-0-0-0-0-0-0-0-0-0-0-0-0-0-0-0-0-0-0-----------------|
F|-----0-2---4-----0-2---0----------------------------------------|
C|---4-----------4--------(4)4----4s2--2s7--7s5-0-----------------|
G|-3-----------2-----------0-----0-----0-----0--------------------|
D|----------------------------------------------------------------|

(A1) slight variation which occurs in the intro and every second time the intro + chorus part is played

##########!that's the variation####################################
C|--0-0-0-0--0-0-0-0-0-0-0-0-0-0-0-0-0-0-0-0-0-0-0----------------|
B|--0-0-0-0--0-0-0-0-0-0-0-0-0-0-0-0-0-0-0-0-0-0-0----------------|
F|-----0-2p02-4-----0-2---0---------------------------------------|
C|---4------------4-----------4-4s2s7---7-7s5-----0---------------|
G|-3------------2-----------0-----0-----0-----0-------------------|
D|----------------------------------------------------------------|

(B) verse 1

C|--0-0-0-0-0-0-0-0-0-0-0-0-0-0-0-0-0-0-0-0-0-0-0-0-0-0-0-0-0-0-0-0-0-0-0-0-0-0-0-0-0-0-0-0-0-0-|
B|--0-0-0-0-0-0-0-0-0-0-0-0-0-0-0-0-0-0-0-0-0-0-0-0-0-0-0-0-0-0-0-0-0-0-0-0-0-0-0-0-0-0-0-0-0-0-|
F|---------------------------------------0-0---0------------------------------------------------|
C|---0-0---0-0---0-0---0-0---2-2---2-2-1-----1---0---0-0---0-0---0-0---0-0---2-2---2-2---0-0---0|
G|-------------------3-----------------------------4-----4-----0-----0-----3-----3-----2-----5--|
D|-3-----3-----1-----------0-----0--------------------------------------------------------------|

(B1) verse 2 (into chorus part)

###########################################################################!chorus part begins#####
C|--0-0-0-0-0-0-0-0-0-0-0-0-0-0-0-0-0-0-0-0-0-0-0-0-0-0-0-0-0-0-0-0-0-0-0-0-0-0-0-0-0-0-0-0-0-0|
B|--0-0-0-0-0-0-0-0-0-0-0-0-0-0-0-0-0-0-0-0-0-0-0-0-0-0-0-0-0-0-0-0-0-0-0-0-0-0-0-0-0-0-0-0-0-0|
F|---------------------------------------0-0---0-------------------------------0-2---4-----0-2-|
C|---0-0---0-0---0-0---0-0---2-2---2-2-1-----1---0---0-0---0-0---0-0---0-0---4-----------4-----|
G|-------------------3-----------------------------4-----4-----0-----0-----3-----------2-------|
D|-3-----3-----1-----------0-----0-------------------------------------------------------------|

so the pattern until the second chorus is: A|A1|B|B1|A|A1|A|B|B1
then at the beginning the chorus is still straight: A|A1|A
but then;

(C) beginning of bridge

##########################!strum#################
C|--0-0-0-0-0-0-0-0-0-0-0-0-0-0-0-0-------------|
B|--0-0-0-0-0-0-0-0-0-0-0-0-0-0-0-0-------------|
F|---------2-4-----0-2---00-0-0-0-0-------------|
C|---4-2---------4--------2-2-5-4-5-------------|
G|------------------------2-3-4-5-3-------------|
D|-3-----2-----0----0-----x-x-x-x-x-------------|

(C2)

C|-0---0-0----|
B|-0---0-4----|
F|-0---0-0----|
C|-0---2-1----| play this 2 times and by the 3rd time it goes like this
G|-2---2-x----|
D|-3---0-x----|

(C3)

##########!start picking again
C|-0---0-0--0-0-0-0-0-0-0-0-0-0-0-0-0-0-0-0-0-0-0-0-0-0-0-0-|
B|-0---0-4--0-0-0-0-0-0-0-0-0-0-0-0-0-0-0-0-0-0-0-0-0-0-0-0-|
F|-0---0-0-----------------------------0-2---4-----0---2-0--|
C|-0---2-1---0-0---0-0---2-2---2-2---4-----------4----------|
G|-2---2-x-4-----4-----0-----0-----3-----------2-----0------|
D|-3---0-x--------------------------------------------------|

(F) and here's the end (similar to part C)

C|--0-0-0-0-0-0-0-0-0-0-0--0-0-0-0-0-0-0----------0---|
B|--0-0-0-0-0-0-0-0-0-0-0--0-0-0-0-0-0-0----------0---|
F|-----0---2-4-----0-2---0-0-0-0-0-0-0-0----------0---|
C|---4-----------4---------2-2-5-4-5-7-7----------0---|
G|-------------------------2-3-4-5-7-9-0--end-on--2---|
D|-3-----2-----0----0-----------------------------3---|

that's it, here goes the pattern of the whole song

A|A1|B|B1|A|A1|A|B|B1|A|A1|A|C|C2|C2|C3|B|B1|A|A1|A|F

have fun playing.
Добавлено: 11.09.2015
Другие материалы по этой песне:
  • Аккорды и текст

Страница создана 17.03.2012
http://primanota.ru/elliott-smith/new-disaster-chords.htm
Привет, Гость.
Предлагаем пройти революционный курс по гитаре.
Подарок от PrimaNota.Ru, забирай!