PrimaNota.ru - самый крупный в мире бесплатный архив песенных текстов, аккордов, табулатур и нот


Elliott Smith - No Life - текст песни, таба, видео

Регистрация Запомнить меня
Войти через:  Facebook Google Twitter Vk Yandex Mail.ru

Elliott Smith - No Life - текст песни, таба, видео

Печатать
Просмотров: 114
no life by elliott smith
tab by alexander rex

Open D (DADF#Ad)

D7   (050657)  G/d   (050555)
Gdim (050445)  D     (050354)
A/d  (xx0342)  E7/d  (xx0222)
Gm   (5x045x)  A/a   (x0234x)
D*   (000000)  G     (555555)
F#   (444444)  C     (tttttt)
A    (777777)  A*    (777797)
A**  (7777t7)  H*    (9999t9)
B*   (8888t8)  D**   (wwwwww)
B**  (8x8870)

t=10, e=11, w=12

D7        G/d
  No life     No life
Gdim           D       A/d       E7/d
Everything you need to keep it together
   Gm               A/a
To keep you off the street
D7        G/d
  No life
Gdim/d         D
Once I used to see
  A/d       E7/d     Gm              A/a
a beautiful stranger walking next to me

  D*          G                 A  F# C  A
-/w--w-e-9-e--5/9-9-----7-5---5-7--4--t--7-|
--0-----------5---5---------9---7--4--t--7-|
--0-----------5---5-------------7--4--t--7-|
--0-----------5---5-------------7--4--t--7-|
--0-----------5---5-------------7--4--t--7-|
--0-----------5---5-------------7--4--t--7-|

  D*          G                         A    A*   A**
-/w--w-e-9-e--5/9-9-----7---5---------5-7----7----7-|
--0-----------5---5--------------9------7----9----t-|
--0-----------5---5---------------------7----7----7-|
--0-----------5---5---------------------7----7----7-|
--0-----------5---5---------------------7----7----7-|
--0-----------5---5---------------------7----7----7-|
                       Sometimes it's a long time coming

D7        G/d
  No life     No life
Gdim           D
Still a lot to learn
    A/d      E7/d
For offering nothing
    Gm        A/a
You get it in return

D7        G/d
  No life
Gdim            D
Pushed away the hand
    A/d                  E7/d
The fate that might have found you
     Gm               A/a
That found some other man

  D*          G                 A  F# C  A
-/w--w-e-9-e--5/9-9-----7-5---5-7--4--t--7-|
--0-----------5---5---------9---7--4--t--7-|
--0-----------5---5-------------7--4--t--7-|
--0-----------5---5-------------7--4--t--7-|
--0-----------5---5-------------7--4--t--7-|
--0-----------5---5-------------7--4--t--7-|

  D*          G                 A    A*   A** H* B*
-/w--w-e-9-e--5/9-9-----7-5---5-7----7----7---9--8-|
--0-----------5---5---------9---7----9----t---t--t-|
--0-----------5---5-------------7----7----7---9--8-|
--0-----------5---5-------------7----7----7---9--8-|
--0-----------5---5-------------7----7----7---9--8-|
--0-----------5---5-------------7----7----7---9--8-|

 D**                    G    A  B**
-w-----w----w----w--14--0----x--0-|
-w--16---16---16--------5----7--7-|
-w----------------------5----7--8-|
-w----------------------5----7--8-|
-w----------------------x----x--x-|
-w----------------------5----7--8-|

D7  G/d  Gdim  D  A/d  E7/d  Gm  A/a
D7  G/d  Gdim  D  A/d  E7/d  Gm  A/a

  D*          G                 A  F# C  A  repeat 3 times
-/w--w-e-9-e--5/9-9-----7-5---5-7--4--t--7-|
--0-----------5---5---------9---7--4--t--7-|
--0-----------5---5-------------7--4--t--7-|
--0-----------5---5-------------7--4--t--7-|
--0-----------5---5-------------7--4--t--7-|
--0-----------5---5-------------7--4--t--7-|

  D*          G                 A  F# A  F# A/a
-/w--w-e-9-e--5/9-9-----7-5---5-7--4--7--4--x-|
--0-----------5---5---------9---7--4--7--4--4-|
--0-----------5---5-------------7--4--7--4--3-|
--0-----------5---5-------------7--4--7--4--2-|
--0-----------5---5-------------7--4--7--4--0-|
--0-----------5---5-------------7--4--7--4--x-|


 D7         G/d      Gdim/d    D         A/d       E7/d      Gm        D5
----7---7-----5---5-----5---5-----4---4-----2---2-----2---2------------0---|
---5---5-----5---5-----4---4-----5---5-----4---4-----2---2------5---5--5---|
--6---6-----5---5-----4---4-----3---3-----3---3-----2---2------4---4---3---|
-0---------0---------0---------0---------0---------0----------0---0----0---|
-----------------------------------------------------------------------0---|
-------------------------------------------------------------5---------0---|
Добавлено: 24.09.2013
Другие материалы по этой песне:
  • Аккорды и текст

Страница создана 24.09.2013
http://primanota.ru/elliott-smith/no-life-chords.htm
Привет, Гость.
Предлагаем пройти революционный курс по гитаре.
Подарок от PrimaNota.Ru, забирай!