PrimaNota.ru - самый крупный в мире бесплатный архив песенных текстов, аккордов, табулатур и нот


Elliott Smith - Abused - таба, видео

Регистрация Запомнить меня
Войти через:  Facebook Google Twitter Vk Yandex Mail.ru

Elliott Smith - Abused - таба, видео

Печатать
Просмотров: 102
Abused-Elliott Smith

Found this on the Sweet Adeline site and I think it's accurate.

e----------------0-----------------------------------------3-5-3-------0---0-2-|
B----------0-1-3---1-3-0-1-0-----------0-----0-1-1-3-1-0---3-2-2-------1-3-1-1-|
G--------0-------------------2-0-----0-----0---0-------0---------------0-------|
D--------0-----------------------0-2-----0-----2-------------------------------|
A-2-2-2--2-------------------------------------3-3-3-3-------------------------|
E-3-3-3--3---------------------------------------------3-3-3-----3-3-3---------|

          Now that everybody's...                    untrue-u-ue now
e-3-3---2-3---3r--3-5-3--------0---0-2-3--2-3---3-I----------------------------|
B-1-1---1-1---1e0-3-2-2--------1-3-1-1-1--1-1---1-I-Repeat-w/out---------------|
G--------------p0--------------0------------------I-The sound test-------------|
D--------------e----------------------------------I-(first 3 notes)------------|
A--------------a----------------------------------I----------------------------|
E---------3-3-3t3-3-----3-3-3---------------3-3-3-I----------------------------|
Est thing...     you-u-u now...    perfect T

  G6  G   ?1  ?2  C ?3 G ?5 G*C G6  G   ?6  G  G(strum w/song) D (do same)
e-0-0-3-3-5-5-3-3-0-0-3-3-5-3-0-0-0-3-3-5-5-3*-3---------------X----------I----|
B-0-0-3-3-2-2-2-2-1-3-3-3-0-0-1-0-0-3-3-3-3-3*-3---------------3----------I----|
G-0-0-0-0-0-0-0-0-0-0-0-0-0-0-0-0-0-0-0-0-0-0*-0---------------2----------I----|
D-0-0-0-0-0-0-0-0---0-0-0-0-0---0-0-0-0-0-0-0*-0---------------0----------I----|
A--------------------------------------------*-2---------------0----------I----|
E--------------------------------------------*-3--------------------------I----|

       G*                Em G C                                           C*
e------3-----3-----3---3-0--3-0-0--*----------3-------5-----3-----0---0-2-3-3--|
B------0-----0-----0---0-0--3-1-3-1*--0-------3-------3-----2-----1-3-1-1-1-1--|
G------0-----0-----0---0-0--0-0-0-0*--0---------------------------0------------|
D------------------------2--0-2----*-------------------------------------------|
A------------------------2--2-3----*-------------------------------------------|
E-3-3----2-2---1-1---0------3------*0-3-3-3-3-3-3-3-0-3-3-3-3-3-3--------------|
 Sunday morning hanging out...        new-ew-ews...

  C* (strum for fill)               C                   G6G      C
E-3r--------3---------5-----3-------0-0---0-2-3-3*3---*-0-3-5-3--0-*-0--3--5--3-|
B-1e--0-----3---------2-----2-------1-1-3-1-1-1-1*1-1-*-0-3-2-2--1-*-3--3--0--0-|
G-0p--0-----------------------------0------------*--0-*-0-0-0-0--0-*-0--0--0--0-|
D-2e--------------------------------2------------*----*-0-0-0-0----*-0--0--0--0-|
A-3a---------------------------------------------*----*------------*------------|
E--t0-3-3-3-3-3-3-3-0-3-3-3-3-3-3-0--------------*----*------------*------------|
                                                        Abused       abused

                                                               G (let ring)
E-0*0--3--5--3--0-*-0--3-5-6-5-3-0*-0--3--5--3-0-*-0--3--5--3I-----------------|
B-1*0--3--3--3--1-*-0--3-5-6-5-3-1*-0--3--2--2-1-*-0--3--2--2I-----------------|
G-0*0--0--0--0--0-*-0--0---------0*-0--0--0--0-0-*-0--0--0--0I-0---------------|
D--*0--0--0--0----*-0--0----------*-0--0--0--0---*-0--0--0--0I-0---------------|
A--*--------------*---------------*--------------*-----------I-2---------------|
E--*--------------*---------------*--------------*-----------I-3---------------|
    Abused           abu-u-u-u-sed  abused          abused

    Just like the intro w/out sound test)
e-------0------------------------------------------3-5-3------0---0-2-3-3--2-3-|
B-0-1-3---1-3-0-1-0-----------0-----0-1-1-3--0-0---3-2-2------1-3-1-1-1-1--1-1-|
G-------------------2-0-----0-----0---0--------0--------------0----------------|
D-----------------------0-2-----0-----2----------------------------------------|
A-------------------------------------3-3-3-3----------------------------------|
E----------------------------------------------3-3-3-----3-3-3---------------3-|

                                              (G)
e---3r----3-5-3-------0-0---0-2-3-3-*-3-3-2-3--3-------------------------------|
B---1e0---3-2-2-------1-1-3-1-1-1-1-*-1-1-1-1--3-------------------------------|
G----p0---------------0-------------*----------0-------------------------------|
D----e------------------------------*----------0-------------------------------|
A----a------------------------------*----------2-------------------------------|
E-3-3t3-3-3-----3-3-3-3-------------*----------3-------------------------------|
      Abused now...   didn't want it to show
Добавлено: 11.09.2015
Другие материалы по этой песне:
  • Аккорды и текст

Страница создана 11.09.2015
http://primanota.ru/elliott-smith/abused-chords.htm
Привет, Гость.
Предлагаем пройти революционный курс по гитаре.
Подарок от PrimaNota.Ru, забирай!