PrimaNota.ru - самый крупный в мире бесплатный архив песенных текстов, аккордов, табулатур и нот


Elisa - Your Manifesto - бас-таба, видео

Регистрация Запомнить меня
Войти через:  Facebook Google Twitter Vk Yandex Mail.ru

Elisa - Your Manifesto - бас-таба, видео

Печатать
Просмотров: 107
-------------------------------------------------------------------------------
			     Your Manifesto - Elisa
-------------------------------------------------------------------------------

Tabbed By : Ciro "sensei" Esposito
e-mail: cimminamotosensei@gmail.com

Tuning: Standard EADG

Intro Part 1

G|-----------------------3-5-|-------------3-5-|
D|----------------3~--5~-----|-----3~--5~------|
A|--3~--5~--6~---------------|-6~--------------|
E|---------------------------|-----------------|

G|-----------------------3-5-|--------------|
D|----------------3~--5~-----|-----3~-------|
A|--3~--5~--6~---------------|-6~-----------|
E|---------------------------|--------------|

Intro part 2

G|--------------------------|
D|-----------------3--------|
A|-3333-p-3333-p-3---6-5~---|  X2
E|--------------------------|

Verse

G|---------------------------------------------------------------------|
D|---------------------------------------5-----------------------------|
A|-3333333333333333-111111111111011---333---5551-3333----1-1-----------|
E|---------------------------------5\----------------------------------|

G|---------------------------------------------------------------------|
D|---------------------------------------5-----------------------------|
A|-3333333333333333-111111111111011---333---5551-333333--1-1-----------|
E|---------------------------------5\----------------------------------|

Chorus

G|---------------------------------------------------------------------------|
D|-3-----------------------3-----3---------------------3-------3-------------|
A|---6-5-p-3333-p-3333-p-3---6-p---6-5-3333-p-3333-p-3---6-p-3---6-5---------|
E|---------------------------------------------------------------------------|

repeat Verse

repeat Chorus twice

Solo (repeat Verse)

Verse

chorus

organ part (bass doesn't play)

repeat intro part 2 x8


| /  slide up
| \  slide down
| h  hammer-on
| p  pull-off
| ~  vibrato
| +  harmonic
| x  Mute note


This is a simple song, if this tab is right please rate it and if there are some
please email me and I will correct them.
Music is my life, Groove is my god, Bass is my faith...
===============================================================================
Добавлено: 28.02.2012
Другие материалы по этой песне:
  • Аккорды и текст

Страница создана 28.02.2012
http://primanota.ru/elisa/your-manifesto-chords.htm
Привет, Гость.
Предлагаем пройти революционный курс по гитаре.
Подарок от PrimaNota.Ru, забирай!