PrimaNota.ru - самый крупный в мире бесплатный архив песенных текстов, аккордов, табулатур и нот


Elisa - Asile's World - текст песни, таба, видео

Регистрация Запомнить меня
Войти через:  Facebook Google Twitter Vk Yandex Mail.ru

Elisa - Asile's World - текст песни, таба, видео

Печатать
Просмотров: 119
		   Trascrizione : Andrea Rigonat


Prima parte (otto battute):
* si tiene il barrè al quarto tasto
* il settimo tasto delle quarta corda (D) si suona con l'anulare... lo so
occorre allargare un po' le dita, ma non è impossibile!
* il 7° tasto della seconda corda (B) della quarta battuta si suona con il
mignolo

Seconda parte (otto battute):
* stessa diteggiatura delle prime, solo due tasti più in basso (barrè
secondo tasto)... si lo so, i problemi di "allargamento" tra indice e
anulare si acuiscono...


INTRO
E||--------------------|--------------------|--------------------|
B||--5-----------4-----|--5-----------4-----|--5-----------4-----|
G||--------4-----------|--------4-----------|--------4-----------|
D||-----7-----7-----7--|-----7-----7-----7--|-----7-----7-----7--|
A||--------------------|--------------------|--------------------|
E||--------------------|--------------------|--------------------|



--------------------|--------------------|--------------------|
--5-----7-----4-----|--5-----------4-----|--5-----------4-----|
--------------------|--------4-----------|--------4-----------|
-----7-----7-----7--|-----7-----7-----7--|-----7-----7-----7--|
--------------------|--------------------|--------------------|
--------------------|--------------------|--------------------|



--------------------|--------4-----------|
--5-----------4-----|--5-----------------|
--------4-----------|--------------4-----|
-----7-----7-----7--|-----7-----7-----7--|
--------------------|--------------------|
--------------------|--------------------|
                             When I'm


--------------------|--------------------|--------------------|
--5-----------4-----|--5-----------4-----|--5-----------4-----|
--------4-----------|--------4-----------|--------4-----------|
-----7-----7-----7--|-----7-----7-----7--|-----7-----7-----7--|
--------------------|--------------------|--------------------|
--------------------|--------------------|--------------------|
looking for       the perfect things Some fantasies they


--------------------|--------------------|--------------------|
--5-----7-----4-----|--5-----------4-----|--5-----------4-----|
--------------------|--------4-----------|--------4-----------|
-----7-----7-----7--|-----7-----7-----7--|-----7-----7-----7--|
--------------------|--------------------|--------------------|
--------------------|--------------------|--------------------|
save me with the      grace                    it's a precious land


--------------------|--------4-----------|--------------------|
--5-----------4-----|--5-----------------|--3-----------2-----|
--------4-----------|--------------4-----|--------2-----------|
-----7-----7-----7--|-----7-----7-----7--|-----5-----5-----5--|
--------------------|--------------------|--------------------|
--------------------|--------------------|--------------------|
                                           All around me


--------------------|--------------------|--------2-----------|
--3-----------2-----|--3-----------2-----|--3-----------------|
--------2-----------|--------2-----------|--------------2-----|
-----5-----5-----5--|-----5-----5-----5--|-----5-----5-----5--|
--------------------|--------------------|--------------------|
--------------------|--------------------|--------------------|
little things    are shining like


--------------------|--------------------|--------------------|
--5-----------4-----|--5-----------4-----|--5-----------4-----|
--------4-----------|--------4-----------|--------4-----------|
-----7-----7-----7--|-----7-----7-----7--|-----7-----7-----7--|
--------------------|--------------------|--------------------|
--------------------|--------------------|--------------------|
they are one - ( are we sisters?)


--------4-----------|--------------------|--------------------|
--5-----------4-----|--5-----------4-----|--5-----------4-----|
--------------------|--------4-----------|--------4-----------|
-----7-----7-----7--|-----7-----7-----7--|-----7-----7-----7--|
--------------------|--------------------|--------------------|
--------------------|--------------------|--------------------|

--------------------|--------------------|--------------------|
--5-----------4-----|--5-----7-----4-----|--5-----------4-----|
--------4-----------|--------------------|--------4-----------|
-----7-----7-----7--|-----7-----7-----7--|-----7-----7-----7--|
--------------------|--------------------|--------------------|
--------------------|--------------------|--------------------|



--------------------|--------------------|--------4-----------|
--5-----------4-----|--5-----------4-----|--5-----------------|
--------4-----------|--------4-----------|--------------4-----|
-----7-----7-----7--|-----7-----7-----7--|-----7-----7-----7--|
--------------------|--------------------|--------------------|
--------------------|--------------------|--------------------|


SEGUE IL GIRO ALLA STESSA MANIERA

When I'm looking for the perfect things
I stand up and put on another face
You're all exploring all you see, you should live everything

DOadd9

MI
Perspiring deeply watching these fears
                            FA#-7
as big as planets I'm hot, I'm hot
MI/SOL#
Perspiring deeply watching these fears
                           SI4
as big as planets I'm hot, I'm hot

I'm waking up in a good day
G happy walking into the sun
See you are living
All you are in your eyes, is there an end?

DO#-                      FA#-
    Just gimme some time sister
MI/SOL#        LA7+           DO
    gimme some trust sister .
   RE             MI-        FA7+
I really want you see me the way
I am the way
I am the way I am

MI
Perspiring deeply watching these fears
                            FA#-7
as big as planets I'm hot, I'm hot
MI/SOL#
Perspiring deeply watching these fears
                           SI4
as big as planets I'm hot, I'm hot

Yellow sun keeps on burning
Wild wise earth keeps on turning.

Yellow sun

     
Добавлено: 10.08.2013
Другие материалы по этой песне:
  • Аккорды и текст

Страница создана 26.04.2012
http://primanota.ru/elisa/asiles-world-chords.htm
Привет, Гость.
Предлагаем пройти революционный курс по гитаре.
Подарок от PrimaNota.Ru, забирай!