PrimaNota.ru - самый крупный в мире бесплатный архив песенных текстов, аккордов, табулатур и нот


Egypt Central - White Rabbit - текст песни, таба, видео

Регистрация Запомнить меня
Войти через:  Facebook Google Twitter Vk Yandex Mail.ru

Egypt Central - White Rabbit - текст песни, таба, видео

Печатать
Просмотров: 1378
Уроки эстрадного вокала в Санкт-Петербурге
----------------------------------------------------------------------------
                               White Rabbit
                               Egypt Central
----------------------------------------------------------------------------

I have awaited the new EC album for years, and I'm addicted to Backfire, Down In Flames, 
and, of course, White Rabbit. I wouldn't say it is better than their first album, but, 
White Rabbit is 1 in a million. If you have problems, check out my cover for visuals. Enjoy!

Username: dkm817 (same on X box live)
Youtube Cover: http://www.youtube.com/watch?v=3kM4xt9V90Y
Email: guitardrums@rockfan.com

Guitar 1 Rhythmic (C# G# C# F# A# D#)
Guitar 2 Lead     (C# G# C# F# A# D#)
Guitar 3 Mixed    (C# G# C# F# A# D#)

Intro 1  Your Magic, White Rabbit
         Has Left His Writing On The Wall
         We Follow, Like Alice
         And Just Keep Diving Down The...

Guitar 1
D#---------------------------------------------------------------|
A#---------------------------------------------------------------|
F#-10~~~~~~~~~~~~~~~~~~~~~~~~~~~~~~~~~~~~~~~~~~~-9~~~~~~~~~~~~~~-|
C#---------------------------------------------------------------|
G#---------------------------------------------------------------|
C#---------------------------------------------------------------|

Guitar 2 (Echo effect)
D#---------------------------------------------------------------|
A#---------------------------------------------------------------|
F#---------2~~~~-----------0~~~~-----------0~~~~-----------0~~~~-|
C#-----5~~~~~~~~-------3~~~~~~~~-------3~~~~~~~~-------3~~~~~~~~-|
G#-------------------------------1~~~~~~~~~~~~~~-3~~~~~~~~~~~~~~-|
C#-0~~~~~~~~~~~~-3~~~~~~~~~~~~~~---------------------------------|

=================================================================

Guitar 1
D#---------------------------------------------------------------|
A#---------------------------------------------------------------|
F#-10~~~~~~~~~~~~~~~~~~~~~~~~~~~~~~~~~~~~~~~~~~~~~-9~~~~~~~~~~~~-|
C#---------------------------------------------------------------|
G#---------------------------------------------------------------|
C#---------------------------------------------------------------|

Guitar 2
D#---------------------------------------------------------------|
A#---------------------------------------------------------------|
F#-----------2~~~~-----------0~~~~-----------0~~~~-0~~~~~~~~~~~~-|
C#-------5~~~~~~~~-------3~~~~~~~~-------3~~~~~~~~-3~~~~~~~~~~~~-|
G#---------------------------------1~~~~~~~~~~~~~~-3~~~~~~~~~~~~-|
C#-0~~~~~~~~~~~~~~-3~~~~~~~~~~~~~~-------------------------------|

=================================================================
=================================================================

Intro 2  HOLE!

(x2)

Guitar 1
D#-----------------------------------------------------------------|
A#-----------------------------------------------------------------|
F#-----------------------------------------------------------------|
C#-0---0---0~~~~---------------------------------------------------|
G#-0---0---0~~~~---------------------------------------------------|
C#-0---0---0~~~~---------------------------------------------------|
Pm .   .   .

Guitar 2
D#-----------------------------------------------------------------|
A#-----------------------------------------------------------------|
F#-----------------------------------------------------------------|
C#-0---0---0~~~~---0---0---7---7---8---8---7---7---6---6---7---7---|
G#-0---0---0~~~~---------------------------------------------------|
C#-0---0---0~~~~---------------------------------------------------|
Pm .   .   .

Guitar 3
D#-----------------------------------------------------------------|
A#-----------------------------------------------------------------|
F#-------------------------10--10--12--12--10--10--9---9---10--10--|
C#-0---0---0~~~~---7---7-------------------------------------------|
G#-0---0---0~~~~---------------------------------------------------|
C#-0---0---0~~~~---------------------------------------------------|
Pm .   .   .

===================================================================

Guitar 1
D#-----------------------------------------------------------------|
A#-----------------------------------------------------------------|
F#-----------------------------------------------------------------|
C#-0---0---0~~~~---------------------------------------------------|
G#-0---0---0~~~~---------------------------------------------------|
C#-0---0---0~~~~---------------------------------------------------|
Pm .   .   .

Guitar 2
D#-----------------------------------------------------------------|
A#-----------------------------------------------------------------|
F#---------------------------------------------------------3*b~~~~-|
C#-0---0---0~~~~---0---0---7---7---8---8---7---7---6---6-----------|
G#-0---0---0~~~~---------------------------------------------------|
C#-0---0---0~~~~---------------------------------------------------|
Pm .   .   .

Guitar 3
D#-----------------------------------------------------------------|
A#-----------------------------------------------------------------|
F#-------------------------10--10--12--12--10--10--9---9-----------|
C#-0---0---0~~~~---7---7-------------------------------------------|
G#-0---0---0~~~~-------------------------------------------10*b~~~-|
C#-0---0---0~~~~---------------------------------------------------|

===================================================================
===================================================================

Break Off 1  You Can't
             Fix Your Broken Promise
             Our Ties
             Have Come Undone

Guitar 1
D#-----------------------------------------------------------------|
A#-----------------------------------------------------------------|
F#-----------------------------------------------------------------|
C#-0---0---0~~~~---------------------------------------------------|
G#-0---0---0~~~~---------------------------------------------------|
C#-0---0---0~~~~---------------------------------------------------|
Pm .   .   .

Guitar 2
D#-----------------------------------------------------------------|
A#-----------------------------------------------------------------|
F#-----------------------------------------------------------------|
C#-----------------0---0---0~~~~-----------------------------------|
G#-----------------0---0---0~~~~-----------------------------------|
C#-----------------0---0---0~~~~-----------------------------------|
Pm                 .   .   .

Guitar 3 (Phaser Effect)
D#-----------------------------------------8---8---10--10--13--12--|
A#-10--10--10--10--11--11--8---8---10--10--------------------------|
F#-----------------------------------------------------------------|
C#-----------------------------------------------------------------|
G#-----------------------------------------------------------------|
C#-----------------------------------------------------------------|
Pm .   .   .   .   .   .   .   .   .   .   .   .   .   .   .   .

===================================================================

Guitar 1
D#-----------------------------------------------------------------|
A#-----------------------------------------------------------------|
F#-----------------------------------------------------------------|
C#-0---0---0~~~~---------------------------------------------------|
G#-0---0---0~~~~---------------------------------------------------|
C#-0---0---0~~~~---------------------------------------------------|
Pm .   .   .

Guitar 2
D#-----------------------------------------------------------------|
A#-----------------------------------------------------------------|
F#-----------------------------------------------------------------|
C#-----------------0---0---0~~~~-----------------------------------|
G#-----------------0---0---0~~~~-----------------------------------|
C#-----------------0---0---0~~~~-----------------------------------|
Pm                 .   .   .

Guitar 3
D#-----------------------------------------------------------------|
A#-----------------------------------------------------------------|
F#---------------------------------------------------------7---7---|
C#-7---7---------------------------5---5---7---7-------------------|
G#---------8---8---7---7---------------------------3---3-----------|
C#-------------------------7---7-----------------------------------|
Pm .   .   .   .   .   .   .   .   .   .   .   .   .   .   .   .

===================================================================

Guitar 1
D#-----------------------------------------------------------------|
A#-----------------------------------------------------------------|
F#-----------------------------------------------------------------|
C#-0---0---0~~~~~~-------------------------------------------------|
G#-0---0---0~~~~~~-------------------------------------------------|
C#-0---0---0~~~~~~-------------------------------------------------|
Pm .   .   .

Guitar 2
D#-----------------------------------------------------------------|
A#-----------------------------------------------------------------|
F#-----------------------------------------------------------------|
C#-----------------0---0---0~~~~~~---------------------------------|
G#-----------------0---0---0~~~~~~---------------------------------|
C#-----------------0---0---0~~~~~~---------------------------------|
Pm                 .   .   .

Guitar 3
D#-----------------------------------------------------------------|
A#-----------------------------------------------------------------|
F#-----------------------------------------------------------------|
C#-7---7---7---7---8---8---5---5---7---7---3---3---5---5---3---0---|
G#-----------------------------------------------------------------|
C#-----------------------------------------------------------------|
Pm .   .   .   .   .   .   .   .   .   .   .   .   .   .   .   .

===================================================================

Guitar 1
D#-----------------------------------------------------------------|
A#-----------------------------------------------------------------|
F#-----------------------------------------------------------------|
C#-0---0---0~~~~---------------------------------------------------|
G#-0---0---0~~~~---------------------------------------------------|
C#-0---0---0~~~~---------------------------------------------------|
Pm .   .   .

Guitar 2
D#-----------------------------------------------------------------|
A#-----------------------------------------------------------------|
F#-----------------------------------------------------------------|
C#-----------------0---0---0~~~~-----------------------------------|
G#-----------------0---0---0~~~~-----------------------------------|
C#-----------------0---0---0~~~~-----------------------------------|
Pm                 .   .   .

Guitar 3
D#-----------------------------------------------------------------|
A#-----------------------------------------------------------------|
F#---------------------------------------------------------7---7---|
C#-7---7---------------------------5---5---7---7-------------------|
G#---------8---8---7---7---------------------------3---3-----------|
C#-------------------------7---7-----------------------------------|
Pm .   .   .   .   .   .   .   .   .   .   .   .   .   .   .   .

===================================================================
===================================================================

Verse 1  I Will Not Be Used, To Be Battered And Abused
         It's The Reason I Choose To Cut My Losses
         Your Lies
         Fool No One

Guitar 1
D#-----------------------------------------------------------------|
A#-----------------------------------------------------------------|
F#-----------------------------------------------------------------|
C#-0---0---0~~~~---------------------------------------------------|
G#-0---0---0~~~~---------------------------------------------------|
C#-0---0---0~~~~---------------------------------------------------|
Pm .   .   .

Guitar 2
D#------------------------------------------------------------------|
A#-6~~~~~~~~~~~~~~-6~~~~~~~~~~~~~~-5~~~~~~~~~~~~~~-5~~~~~~~~~~~~~~--|
F#---------7~~~~~~~~~~~~~~-7~~~~~~~~~~~~~~-7~~~~~~~~~~~~~~-7~~~~~~~-|
C#------------------------------------------------------------------|
G#------------------------------------------------------------------|
C#------------------------------------------------------------------|

Guitar 3
D#-----------------------------------------8---8---10--10--13--12--|
A#-10--10--10--10--11--11--8---8---10--10--------------------------|
F#-----------------------------------------------------------------|
C#-----------------------------------------------------------------|
G#-----------------------------------------------------------------|
C#-----------------------------------------------------------------|
Pm .   .   .   .   .   .   .   .   .   .   .   .   .   .   .   .

===================================================================

Guitar 1
D#-----------------------------------------------------------------|
A#-----------------------------------------------------------------|
F#-----------------------------------------------------------------|
C#-0---0---0~~~~---------------------------------------------------|
G#-0---0---0~~~~---------------------------------------------------|
C#-0---0---0~~~~---------------------------------------------------|
Pm .   .   .

Guitar 2
D#------------------------------------------------------------------|
A#-8~~~~~~~~~~~~~~-8~~~~~~~~~~~~~~-6~~~~~~~~~~~~~~-6~~~~~~~~~~~~~~--|
F#-~~~~~~~-7~~~~~~~~~~~~~~-7~~~~~~~~~~~~~~-7~~~~~~~~~~~~~~-7~~~~~~~-|
C#------------------------------------------------------------------|
G#------------------------------------------------------------------|
C#------------------------------------------------------------------|

Guitar 3
D#-----------------------------------------------------------------|
A#-----------------------------------------------------------------|
F#---------------------------------------------------------7---7---|
C#-7---7---------------------------5---5---7---7-------------------|
G#---------8---8---7---7---------------------------3---3-----------|
C#-------------------------7---7-----------------------------------|
Pm .   .   .   .   .   .   .   .   .   .   .   .   .   .   .   .

===================================================================

Guitar 1
D#-----------------------------------------------------------------|
A#-----------------------------------------------------------------|
F#-----------------------------------------------------------------|
C#-0---0---0~~~~---------------------------------------------------|
G#-0---0---0~~~~---------------------------------------------------|
C#-0---0---0~~~~---------------------------------------------------|
Pm .   .   .

Guitar 2
D#------------------------------------------------------------------|
A#-6~~~~~~~~~~~~~~-6~~~~~~~~~~~~~~-5~~~~~~~~~~~~~~-5~~~~~~~~~~~~~~--|
F#-~~~~~~~-7~~~~~~~~~~~~~~-7~~~~~~~~~~~~~~-7~~~~~~~~~~~~~~-7~~~~~~~-|
C#------------------------------------------------------------------|
G#------------------------------------------------------------------|
C#------------------------------------------------------------------|

Guitar 3
D#-----------------------------------------------------------------|
A#-----------------------------------------------------------------|
F#-----------------------------------------------------------------|
C#-7---7---7---7---8---8---5---5---7---7---3---3---5---5---3---0---|
G#-----------------------------------------------------------------|
C#-----------------------------------------------------------------|
Pm .   .   .   .   .   .   .   .   .   .   .   .   .   .   .   .

===================================================================

Guitar 1
D#-----------------------------------------------------------------|
A#-----------------------------------------------------------------|
F#-----------------------------------------------------------------|
C#-0---0---0~~~~---------------------------------------------------|
G#-0---0---0~~~~---------------------------------------------------|
C#-0---0---0~~~~---------------------------------------------------|
Pm .   .   .

Guitar 2
D#-----------------------------------------------------------------|
A#-8~~~~~~~~~~~~~~-8~~~~~~~~~~~~~~-6~~~~~~~~~~~~~~-6~~~~~~~~~~~~~~-|
F#-~~~~~~~-7~~~~~~~~~~~~~~-7~~~~~~~~~~~~~~-7~~~~~~~~~~~~~~-7~~~~~~-|
C#-----------------------------------------------------------------|
G#-----------------------------------------------------------------|
C#-----------------------------------------------------------------|

Guitar 3
D#-----------------------------------------------------------------|
A#-----------------------------------------------------------------|
F#---------------------------------------------------------7---7---|
C#-7---7---------------------------5---5---7---7-------------------|
G#---------8---8---7---7---------------------------3---3-----------|
C#-------------------------7---7-----------------------------------|
Pm .   .   .   .   .   .   .   .   .   .   .   .   .   .   .   .

===================================================================
===================================================================

Pre Chorus 1  Your Magic, White Rabbit
              Your White Room, Straight Jacket

Guitar 2
D#-----------------------------------------------------------------
A#-6~~~~~~~~~~~~~~~~~~~~~~~~~~~~~~~~~~~~~~~~~~~~~~~~~~~~~~~~~~~~~~-
F#-7~~~~~~~~~~~~~~~~~~~~~~~~~~~~~~~~~~~~~~~~~~~~~~~~~~~~~~~~~~~~~~-
C#-----------------------------------------------------------------|
G#-----------------------------------------------------------------|
C#-----------------------------------------------------------------|

Guitar 3
D#-----------------------------------------------------------------|
A#-----------------------------------------------------------------|
F#-----------------------------------------------------------------|
C#-----------------------------------------------------------------|
G#-5~~~~~~~~~~~~~~~~~~~~~~~~~~~~~~~~~~~~~~~~~~~~~~~~~~~~~~~~~~~~~~-
C#-----------------------------------------------------------------
Pm .

===================================================================
===================================================================

Chorus 1  Your Magic, White Rabbit
          Has Left His Writing On The Wall
          We Follow, Like Alice
          And Just Keep Diving Down The Hole
          We're Falling And We're
          Losing Control
          You're Pulling Us
          Dragging Us, Down This Dead End Road
          We Follow, Like Alice
          And Just Keep Diving Down The...

Guitar 1 & 3
D#-----------------------------------------------------------------|
A#-----------------------------------------------------------------|
F#-----------------------------------------------------------------|
C#-0---0---0---0---0---0---0---0---3---3---3---3---3---3---3---3---|
G#-0---0---0---0---0---0---0---0---3---3---3---3---3---3---3---3---|
C#-0---0---0---0---0---0---0---0---3---3---3---3---3---3---3---3---|

Guitar 2
D#-----------------------------------------------------------------|
A#-----------------------------------------------------------------|
F#-------------10--10--9---9---10--------------10--10--9---9---7---|
C#-0~~~~~~~~~~---------------------0~~~~~~~~~~---------------------|
G#-----------------------------------------------------------------|
C#-----------------------------------------------------------------|

===================================================================

Guitar 1 & 3
D#-----------------------------------------------------------------|
A#-----------------------------------------------------------------|
F#-----------------------------------------------------------------|
C#-8---8---8---8---8---8---8---8---8---10~~~~~-10~~~~~-10--10--10--|
G#-8---8---8---8---8---8---8---8---8---10~~~~~-10~~~~~-10--10--10--|
C#-8---8---8---8---8---8---8---8---8---10~~~~~-10~~~~~-10--10--10--|

Guitar 2
D#-----------------------------------------------------------------|
A#-----------------------------------------------------------------|
F#-------------10--10--9---9---10--10--12--12--10--10--9---9---10--|
C#-0~~~~~~~~~~-----------------------------------------------------|
G#-----------------------------------------------------------------|
C#-----------------------------------------------------------------|

===================================================================

Guitar 1
D#-----------------------------------------------------------------|
A#-----------------------------------------------------------------|
F#-----------------------------------------------------------------|
C#-0---0---0---0---0---0---0---0---3---3---3---3---3---3---3---3---|
G#-0---0---0---0---0---0---0---0---3---3---3---3---3---3---3---3---|
C#-0---0---0---0---0---0---0---0---3---3---3---3---3---3---3---3---|

Guitar 2
D#-----------------------------------------------------------------|
A#-----------------------------------------------------------------|
F#-------------10--10--9---9---10--------------10--10--9---9---7---|
C#-0~~~~~~~~~~---------------------0~~~~~~~~~~---------------------|
G#-----------------------------------------------------------------|
C#-----------------------------------------------------------------|

Guitar 3
D#-----------------------------------------------------------------|
A#-------------10--10--8---8---10--------------10--10--8---8---6---|
F#-----------------------------------------------------------------|
C#-0~~~~~~~~~~---------------------0~~~~~~~~~~---------------------|
G#-----------------------------------------------------------------|
C#-----------------------------------------------------------------|

===================================================================

Guitar 1
D#-----------------------------------------------------------------|
A#-----------------------------------------------------------------|
F#-----------------------------------------------------------------|
C#-8---8---8---8---8---8---8---8---8---10~~~~~-10~~~~~-10--10--10--|
G#-8---8---8---8---8---8---8---8---8---10~~~~~-10~~~~~-10--10--10--|
C#-8---8---8---8---8---8---8---8---8---10~~~~~-10~~~~~-10--10--10--|

Guitar 2
D#-----------------------------------------------------------------|
A#-----------------------------------------------------------------|
F#-------------10--10--9---9---10--10--12--12--10--10--9---9---10--|
C#-0~~~~~~~~~~-----------------------------------------------------|
G#-----------------------------------------------------------------|
C#-----------------------------------------------------------------|

Guitar 3
D#-----------------------------------------------------------------|
A#-------------10--10--8---8---10--10--11--11--10--10--8---8---10--|
F#-----------------------------------------------------------------|
C#-0~~~~~~~~~~-----------------------------------------------------|
G#-----------------------------------------------------------------|
C#-----------------------------------------------------------------|

===================================================================

Guitar 1
D#-----------------------------------------------------------------|
A#-----------------------------------------------------------------|
F#-----------------------------------------------------------------|
C#-8---8---8---8---8---8---8---8---8---8---8---8---8---8---8---8---|
G#-8---8---8---8---8---8---8---8---8---8---8---8---8---8---8---8---|
C#-8---8---8---8---8---8---8---8---8---8---8---8---8---8---8---8---|

Guitar 2
D#-----------------------------------------------------------------|
A#---------------------------------11--11--11--11--11--11--11--11--|
F#-10--10--10--10--10--10--10--10----------------------------------|
C#-----------------------------------------------------------------|
G#-----------------------------------------------------------------|
C#-----------------------------------------------------------------|

Guitar 3
D#-----------------------------------------------------------------|
A#-----------------------------------------------------------------|
F#-3---3---3---3---3---3---3---3---7---7---7---7---7---7---7---7---|
C#-x---x---x---x---x---x---x---x---x---x---x---x---x---x---x---x---|
G#-1---1---1---1---1---1---1---1---5---5---5---5---5---5---5---5---|
C#-----------------------------------------------------------------|

===================================================================

Guitar 1
D#-----------------------------------------------------------------|
A#-----------------------------------------------------------------|
F#---------------------------------5---5---5---5---5---5---5---5---|
C#-3---3---3---3---3---3---3---3---5---5---5---5---5---5---5---5---|
G#-3---3---3---3---3---3---3---3---3---3---3---3---3---3---3---3---|
C#-3---3---3---3---3---3---3---3-----------------------------------|

Guitar 2
D#-----------------------------------------------------------------|
A#-10--10--10--10--10--10--10--10----------------------------------|
F#---------------------------------12--12--12--12--12--12--12--12--|
C#-----------------------------------------------------------------|
G#-----------------------------------------------------------------|
C#-----------------------------------------------------------------|

Guitar 3
D#-----------------------------------------------------------------|
A#-----------------------------------------------------------------|
F#-10--10--10--10--10--10--10--10--9---9---9---9---9---9---9---9---|
C#-x---x---x---x---x---x---x---x---x---x---x---x---x---x---x---x---|
G#-8---8---8---8---8---8---8---8---7---7---7---7---7---7---7---7---|
C#-----------------------------------------------------------------|

===================================================================

Guitar 1
D#-----------------------------------------------------------------|
A#-----------------------------------------------------------------|
F#-6---6---6---6---6---6---6---6---6---6---6---6---6---6---6---9---|
C#-6---6---6---6---6---6---6---6---6---6---6---6---6---------------|
G#-4---4---4---4---4---4---4---4---4---4---4---4---4---------------|
C#-----------------------------------------------------------------|

Guitar 2
D#-----------------------------------------------------------------|
A#-10--10--10--10--10--10--10--10--10------------------5---5---8---|
F#-----------------------------------------------------------------|
C#-------------------------------------5---5---7---7---------------|
G#-----------------------------------------------------------------|
C#-----------------------------------------------------------------|

Guitar 3
D#-----------------------------------------------------------------|
A#-----------------------------------------------------------------|
F#-6---6---6---6---6---6---6---6---6-------------------6---6---9---|
C#-x---x---x---x---x---x---x---x---x---5---5---7---7---------------|
G#-4---4---4---4---4---4---4---4---4-------------------------------|
C#-----------------------------------------------------------------|

===================================================================

Guitar 1
D#-----------------------------------------------------------------|
A#-----------------------------------------------------------------|
F#-7---7---7---7---7---7---7---7---5---5---5---5---5---5---5---5---|
C#-7---7---7---7---7---7---7---7---5---5---5---5---5---5---5---5---|
G#-5---5---5---5---5---5---5---5---3---3---3---3---3---3---3---3---|
C#-----------------------------------------------------------------|

Guitar 2 & 3
D#-------------13------13----------12----------12------12\~~~~~~~~-|
A#-10~~~~~-10------10------10--10------10--10------10--------------|
F#-----------------------------------------------------------------|
C#-----------------------------------------------------------------|
G#-----------------------------------------------------------------|
C#-----------------------------------------------------------------|

===================================================================

Guitar 1 & 3
D#-----------------------------------------------------------------|
A#-----------------------------------------------------------------|
F#-----------------------------------------------------------------|
C#-0---0---0---0---0---0---0---0---3---3---3---3---3---3---3---3---|
G#-0---0---0---0---0---0---0---0---3---3---3---3---3---3---3---3---|
C#-0---0---0---0---0---0---0---0---3---3---3---3---3---3---3---3---|

Guitar 2
D#-----------------------------------------------------------------|
A#-----------------------------------------------------------------|
F#-------------10--10--9---9---10--------------10--10--9---9---7---|
C#-0~~~~~~~~~~---------------------0~~~~~~~~~~---------------------|
G#-----------------------------------------------------------------|
C#-----------------------------------------------------------------|

===================================================================

Guitar 1 & 3
D#-----------------------------------------------------------------|
A#-----------------------------------------------------------------|
F#-----------------------------------------------------------------|
C#-8---8---8---8---8---8---8---8---8---10------10~~~~~-/12\~~~~~~~-|
G#-8---8---8---8---8---8---8---8---8---10------10~~~~~-/12\~~~~~~~-|
C#-8---8---8---8---8---8---8---8---8---10------10~~~~~-/12\~~~~~~~-|

Guitar 2
D#-----------------------------------------------------------------|
A#-----------------------------------------------------------------|
F#-------------10--10--9---9---10--10--12------12~~~~~-------------|
C#-0~~~~~~~~~~-----------------------------------------/12\~~~~~~~-|
G#-----------------------------------------------------/12\~~~~~~~-|
C#-----------------------------------------------------/12\~~~~~~~-|

===================================================================
===================================================================

Break Off 2  Hole

Guitar 1
D#-----------------------------------------------------------------|
A#-----------------------------------------------------------------|
F#-----------------------------------------------------------------|
C#-0---0---0~~~~---------------------------------------------------|
G#-0---0---0~~~~---------------------------------------------------|
C#-0---0---0~~~~---------------------------------------------------|
Pm .   .   .

Guitar 2
D#-----------------------------------------------------------------|
A#-----------------------------------------------------------------|
F#-----------------------------------------------------------------|
C#-0---0---0~~~~---0---0---7---7---8---8---7---7---6---6---7---7---|
G#-0---0---0~~~~---------------------------------------------------|
C#-0---0---0~~~~---------------------------------------------------|
Pm .   .   .

Guitar 3
D#-----------------------------------------------------------------|
A#-----------------------------------------------------------------|
F#-------------------------10--10--12--12--10--10--9---9---10--10--|
C#-0---0---0~~~~---7---7-------------------------------------------|
G#-0---0---0~~~~---------------------------------------------------|
C#-0---0---0~~~~---------------------------------------------------|
Pm .   .   .

===================================================================

Guitar 1
D#-----------------------------------------------------------------|
A#-----------------------------------------------------------------|
F#-----------------------------------------------------------------|
C#-0---0---0~~~~---------------------------------------------------|
G#-0---0---0~~~~---------------------------------------------------|
C#-0---0---0~~~~---------------------------------------------------|
Pm .   .   .

Guitar 2
D#-----------------------------------------------------------------|
A#-----------------------------------------------------------------|
F#---------------------------------------------------------3*b~~~~-|
C#-0---0---0~~~~---0---0---7---7---8---8---7---7---6---6-----------|
G#-0---0---0~~~~---------------------------------------------------|
C#-0---0---0~~~~---------------------------------------------------|
Pm .   .   .

Guitar 3
D#-----------------------------------------------------------------|
A#-----------------------------------------------------------------|
F#-------------------------10--10--12--12--10--10--9---9-----------|
C#-0---0---0~~~~---7---7-------------------------------------------|
G#-0---0---0~~~~-------------------------------------------10*b~~~-|
C#-0---0---0~~~~---------------------------------------------------|

===================================================================
===================================================================

Verse 2  You Can't
         Offer Your Poison To Me
         In Your
         Kingdom Of Filth

(x2)

Guitar 1
D#-----------------------------------------------------------------|
A#-----------------------------------------------------------------|
F#-----------------------------------------------------------------|
C#-0---0---0~~~~-----------------------------------------------0*--|
G#-0---0---0~~~~-----------------------------------------------0*--|
C#-0---0---0~~~~-----------------------------------------------0*--|
Pm .   .   .

Guitar 2
D#------------------------------------------------------------------|
A#-6~~~~~~~~~~~~~~-6~~~~~~~~~~~~~~-5~~~~~~~~~~~~~~-5~~~~~~~~~~~~~~--|
F#---------7~~~~~~~~~~~~~~-7~~~~~~~~~~~~~~-7~~~~~~~~~~~~~~-7~~~~~~~-|
C#------------------------------------------------------------------|
G#------------------------------------------------------------------|
C#------------------------------------------------------------------|

Guitar 3
D#-----------------------------------------------------------------|
A#-----------------------------------------------------------------|
F#-----------------------------------------------------------------|
C#-7---7---7---7---8---8---5---5---7---7---3---3---5---5---3---0---|
G#-----------------------------------------------------------------|
C#-----------------------------------------------------------------|
Pm .   .   .   .   .   .   .   .   .   .   .   .   .   .   .   .

===================================================================

Guitar 1
D#-----------------------------------------------------------------|
A#-----------------------------------------------------------------|
F#-----------------------------------------------------------------|
C#-0---0---0~~~~---------------------------------------------------|
G#-0---0---0~~~~---------------------------------------------------|
C#-0---0---0~~~~---------------------------------------------------|
Pm .   .   .

Guitar 2
D#-----------------------------------------------------------------|
A#-8~~~~~~~~~~~~~~-8~~~~~~~~~~~~~~-6~~~~~~~~~~~~~~-6~~~~~~~~~~~~~~-|
F#-~~~~~~~-7~~~~~~~~~~~~~~-7~~~~~~~~~~~~~~-7~~~~~~~~~~~~~~-7~~~~~~-|
C#-----------------------------------------------------------------|
G#-----------------------------------------------------------------|
C#-----------------------------------------------------------------|

Guitar 3
D#-----------------------------------------------------------------|
A#-----------------------------------------------------------------|
F#---------------------------------------------------------7---7---|
C#-7---7---------------------------5---5---7---7-------------------|
G#---------8---8---7---7---------------------------3---3-----------|
C#-------------------------7---7-----------------------------------|
Pm .   .   .   .   .   .   .   .   .   .   .   .   .   .   .   .

===================================================================
===================================================================

Pre Chorus 1  White Rabbit
              Straight Jacket

Guitar 2
D#-----------------------------------------------------------------
A#-6~~~~~~~~~~~~~~~~~~~~~~~~~~~~~~~~~~~~~~~~~~~~~~~~~~~~~~~~~~~~~~-
F#-7~~~~~~~~~~~~~~~~~~~~~~~~~~~~~~~~~~~~~~~~~~~~~~~~~~~~~~~~~~~~~~-
C#-----------------------------------------------------------------|
G#-----------------------------------------------------------------|
C#-----------------------------------------------------------------|

Guitar 3 (Wah Effect, Open and Close twice)
D#-----------------------------------------------------------------|
A#-----------------------------------------------------------------|
F#-----------------------------------------------------------------|
C#-----------------------------------------------------------------|
G#-5---5---5---5---5---5---5---5---5---5---5---5---5---5---5---5---|
C#-----------------------------------------------------------------|
Pm .   .   .   .   .   .   .   .   .   .   .   .   .   .   .   .

===================================================================

Guitar 1 & 2
D#-----------------------------------------------------------------|
A#-----------------------------------------------------------------|
F#-----------------------------------------------------------------|
C#-----------------------------------------------------x---x---x---|
G#-----------------------------------------------------x---x---x---|
C#-----------------------------------------------------x---x---x---|

Guitar 3
D#-----------------------------------------------------------------|
A#-----------------------------------------------------------------|
F#-----------------------------------------------------------------|
C#-----------------------------------------------------------------|
G#-5---5---5---5---5---5---5---5---5---5---5---5---5---5---5---5---|
C#-----------------------------------------------------------------|
Pm .   .   .   .   .   .   .   .   .   .   .   .   .   .   .   .

===================================================================
===================================================================

Chorus 1  Your Magic, White Rabbit
          Has Left His Writing On The Wall
          We Follow, Like Alice
          And Just Keep Diving Down The Hole
          We're Falling And We're
          Losing Control
          You're Pulling Us
          Dragging Us, Down This Dead End Road
          We Follow, Like Alice
          And Just Keep Diving Down The...

Guitar 1 & 3
D#-----------------------------------------------------------------|
A#-----------------------------------------------------------------|
F#-----------------------------------------------------------------|
C#-0---0---0---0---0---0---0---0---3---3---3---3---3---3---3---3---|
G#-0---0---0---0---0---0---0---0---3---3---3---3---3---3---3---3---|
C#-0---0---0---0---0---0---0---0---3---3---3---3---3---3---3---3---|

Guitar 2
D#-----------------------------------------------------------------|
A#-----------------------------------------------------------------|
F#-------------10--10--9---9---10--------------10--10--9---9---7---|
C#-0~~~~~~~~~~---------------------0~~~~~~~~~~---------------------|
G#-----------------------------------------------------------------|
C#-----------------------------------------------------------------|

===================================================================

Guitar 1 & 3
D#-----------------------------------------------------------------|
A#-----------------------------------------------------------------|
F#-----------------------------------------------------------------|
C#-8---8---8---8---8---8---8---8---8---10~~~~~-10~~~~~-10--10--10--|
G#-8---8---8---8---8---8---8---8---8---10~~~~~-10~~~~~-10--10--10--|
C#-8---8---8---8---8---8---8---8---8---10~~~~~-10~~~~~-10--10--10--|

Guitar 2
D#-----------------------------------------------------------------|
A#-----------------------------------------------------------------|
F#-------------10--10--9---9---10--10--12--12--10--10--9---9---10--|
C#-0~~~~~~~~~~-----------------------------------------------------|
G#-----------------------------------------------------------------|
C#-----------------------------------------------------------------|

===================================================================

Guitar 1
D#-----------------------------------------------------------------|
A#-----------------------------------------------------------------|
F#-----------------------------------------------------------------|
C#-0---0---0---0---0---0---0---0---3---3---3---3---3---3---3---3---|
G#-0---0---0---0---0---0---0---0---3---3---3---3---3---3---3---3---|
C#-0---0---0---0---0---0---0---0---3---3---3---3---3---3---3---3---|

Guitar 2
D#-----------------------------------------------------------------|
A#-----------------------------------------------------------------|
F#-------------10--10--9---9---10--------------10--10--9---9---7---|
C#-0~~~~~~~~~~---------------------0~~~~~~~~~~---------------------|
G#-----------------------------------------------------------------|
C#-----------------------------------------------------------------|

Guitar 3
D#-----------------------------------------------------------------|
A#-------------10--10--8---8---10--------------10--10--8---8---6---|
F#-----------------------------------------------------------------|
C#-0~~~~~~~~~~---------------------0~~~~~~~~~~---------------------|
G#-----------------------------------------------------------------|
C#-----------------------------------------------------------------|

===================================================================

Guitar 1
D#-----------------------------------------------------------------|
A#-----------------------------------------------------------------|
F#-----------------------------------------------------------------|
C#-8---8---8---8---8---8---8---8---8---10~~~~~-10~~~~~-10--10--10--|
G#-8---8---8---8---8---8---8---8---8---10~~~~~-10~~~~~-10--10--10--|
C#-8---8---8---8---8---8---8---8---8---10~~~~~-10~~~~~-10--10--10--|

Guitar 2
D#-----------------------------------------------------------------|
A#-----------------------------------------------------------------|
F#-------------10--10--9---9---10--10--12--12--10--10--9---9---10--|
C#-0~~~~~~~~~~-----------------------------------------------------|
G#-----------------------------------------------------------------|
C#-----------------------------------------------------------------|

Guitar 3
D#-----------------------------------------------------------------|
A#-------------10--10--8---8---10--10--11--11--10--10--8---8---10--|
F#-----------------------------------------------------------------|
C#-0~~~~~~~~~~-----------------------------------------------------|
G#-----------------------------------------------------------------|
C#-----------------------------------------------------------------|

===================================================================

Guitar 1
D#-----------------------------------------------------------------|
A#-----------------------------------------------------------------|
F#-----------------------------------------------------------------|
C#-8---8---8---8---8---8---8---8---8---8---8---8---8---8---8---8---|
G#-8---8---8---8---8---8---8---8---8---8---8---8---8---8---8---8---|
C#-8---8---8---8---8---8---8---8---8---8---8---8---8---8---8---8---|

Guitar 2
D#-----------------------------------------------------------------|
A#---------------------------------11--11--11--11--11--11--11--11--|
F#-10--10--10--10--10--10--10--10----------------------------------|
C#-----------------------------------------------------------------|
G#-----------------------------------------------------------------|
C#-----------------------------------------------------------------|

Guitar 3
D#-----------------------------------------------------------------|
A#-----------------------------------------------------------------|
F#-3---3---3---3---3---3---3---3---7---7---7---7---7---7---7---7---|
C#-x---x---x---x---x---x---x---x---x---x---x---x---x---x---x---x---|
G#-1---1---1---1---1---1---1---1---5---5---5---5---5---5---5---5---|
C#-----------------------------------------------------------------|

===================================================================

Guitar 1
D#-----------------------------------------------------------------|
A#-----------------------------------------------------------------|
F#---------------------------------5---5---5---5---5---5---5---5---|
C#-3---3---3---3---3---3---3---3---5---5---5---5---5---5---5---5---|
G#-3---3---3---3---3---3---3---3---3---3---3---3---3---3---3---3---|
C#-3---3---3---3---3---3---3---3-----------------------------------|

Guitar 2
D#-----------------------------------------------------------------|
A#-10--10--10--10--10--10--10--10----------------------------------|
F#---------------------------------12--12--12--12--12--12--12--12--|
C#-----------------------------------------------------------------|
G#-----------------------------------------------------------------|
C#-----------------------------------------------------------------|

Guitar 3
D#-----------------------------------------------------------------|
A#-----------------------------------------------------------------|
F#-10--10--10--10--10--10--10--10--9---9---9---9---9---9---9---9---|
C#-x---x---x---x---x---x---x---x---x---x---x---x---x---x---x---x---|
G#-8---8---8---8---8---8---8---8---7---7---7---7---7---7---7---7---|
C#-----------------------------------------------------------------|

===================================================================

Guitar 1
D#-----------------------------------------------------------------|
A#-----------------------------------------------------------------|
F#-6---6---6---6---6---6---6---6---6---6---6---6---6---6---6---9---|
C#-6---6---6---6---6---6---6---6---6---6---6---6---6---------------|
G#-4---4---4---4---4---4---4---4---4---4---4---4---4---------------|
C#-----------------------------------------------------------------|

Guitar 2
D#-----------------------------------------------------------------|
A#-10--10--10--10--10--10--10--10--10------------------5---5---8---|
F#-----------------------------------------------------------------|
C#-------------------------------------5---5---7---7---------------|
G#-----------------------------------------------------------------|
C#-----------------------------------------------------------------|

Guitar 3
D#-----------------------------------------------------------------|
A#-----------------------------------------------------------------|
F#-6---6---6---6---6---6---6---6---6-------------------6---6---9---|
C#-x---x---x---x---x---x---x---x---x---5---5---7---7---------------|
G#-4---4---4---4---4---4---4---4---4-------------------------------|
C#-----------------------------------------------------------------|

===================================================================

Guitar 1
D#-----------------------------------------------------------------|
A#-----------------------------------------------------------------|
F#-7---7---7---7---7---7---7---7---5---5---5---5---5---5---5---5---|
C#-7---7---7---7---7---7---7---7---5---5---5---5---5---5---5---5---|
G#-5---5---5---5---5---5---5---5---3---3---3---3---3---3---3---3---|
C#-----------------------------------------------------------------|

Guitar 2 & 3
D#-------------13------13----------12----------12------12\~~~~~~~~-|
A#-10~~~~~-10------10------10--10------10--10------10--------------|
F#-----------------------------------------------------------------|
C#-----------------------------------------------------------------|
G#-----------------------------------------------------------------|
C#-----------------------------------------------------------------|

===================================================================

Guitar 1 & 3
D#-----------------------------------------------------------------|
A#-----------------------------------------------------------------|
F#-----------------------------------------------------------------|
C#-0---0---0---0---0---0---0---0---3---3---3---3---3---3---3---3---|
G#-0---0---0---0---0---0---0---0---3---3---3---3---3---3---3---3---|
C#-0---0---0---0---0---0---0---0---3---3---3---3---3---3---3---3---|

Guitar 2
D#-----------------------------------------------------------------|
A#-----------------------------------------------------------------|
F#-------------10--10--9---9---10--------------10--10--9---9---7---|
C#-0~~~~~~~~~~---------------------0~~~~~~~~~~---------------------|
G#-----------------------------------------------------------------|
C#-----------------------------------------------------------------|

===================================================================

Guitar 1 & 3
D#-----------------------------------------------------------------|
A#-----------------------------------------------------------------|
F#-----------------------------------------------------------------|
C#-8---8---8---8---8---8---8---8---8---10------10~~~~~-------------|
G#-8---8---8---8---8---8---8---8---8---10------10~~~~~-------------|
C#-8---8---8---8---8---8---8---8---8---10------10~~~~~-------------|

Guitar 2
D#-----------------------------------------------------------------|
A#-----------------------------------------------------------------|
F#-------------10--10--9---9---10--10--12------12~~~~~-------------|
C#-0~~~~~~~~~~-----------------------------------------------------|
G#-----------------------------------------------------------------|
C#-----------------------------------------------------------------|

===================================================================
===================================================================

Breakdown 1  Hole
             I Won't Be Pushed Aside
             I Will Be Heard
             I Will Get What I Want
             What I Deserve

All Guitars
D#-----------------------------------------------------------------|
A#-----------------------------------------------------------------|
F#-7---7---7---7-----------7-------7-------7---7---7---7-----------|
C#-7---7---7---7-----------7-------7-------7---7---7---7-----------|
G#-5---5---5---5-----------5-------5-------5---5---5---5-----------|
C#-----------------------------------------------------------------|
Pm .   .   .   .           .       .       .   .   .   .

===================================================================

Guitar 1 & 3
D#-----------------------------------------------------------------|
A#-----------------------------------------------------------------|
F#-7-------7-------10--10--10--10----------------------------------|
C#-7-------7-------10--10--10--10----------------------------------|
G#-5-------5-------8---8---8---8-----------------------------------|
C#-----------------------------------------2*b~~~~~~~~~~~~~~~~~~~~-|
Pm .       .       .   .   .   .

Guitar 2
D#-----------------------------------------------------------------|
A#-----------------------------------------------------------------|
F#-7-------7-------10--10--10--10----------------------------------|
C#-7-------7-------10--10--10--10----------------------------------|
G#-5-------5-------8---8---8---8-----------7*b~~~~~~~~~~~~~~~~~~~~-|
C#-----------------------------------------------------------------|
Pm .       .       .   .   .   .

===================================================================

All Guitars
D#-----------------------------------------------------------------|
A#-----------------------------------------------------------------|
F#-7---7---7---7-----------7-------7-------7---7---7---7-----------|
C#-7---7---7---7-----------7-------7-------7---7---7---7-----------|
G#-5---5---5---5-----------5-------5-------5---5---5---5-----------|
C#-----------------------------------------------------------------|
Pm .   .   .   .           .       .       .   .   .   .

===================================================================

Guitar 1 & 3
D#-----------------------------------------------------------------|
A#-----------------------------------------------------------------|
F#-7-------7-------------------------------------------------------|
C#-7-------7-------------------------------------------------------|
G#-5-------5-------------------------------------------------------|
C#-----------------3---3---3---3-----------2*b~~~~~~~~~~~~~~~~~~~~-|
Pm .       .

Guitar 2
D#-----------------------------------------------------------------|
A#-----------------------------------------------------------------|
F#-7-------7-------10--10--10--10----------------------------------|
C#-7-------7-------10--10--10--10----------------------------------|
G#-5-------5-------8---8---8---8-----------7*b~~~~~~~~~~~~~~~~~~~~-|
C#-----------------------------------------------------------------|
Pm .       .       .   .   .   .

===================================================================

All Guitars
D#-----------------------------------------------------------------|
A#-----------------------------------------------------------------|
F#-7---7---7---7-----------7-------7-------7---7---7---7-----------|
C#-7---7---7---7-----------7-------7-------7---7---7---7-----------|
G#-5---5---5---5-----------5-------5-------5---5---5---5-----------|
C#-----------------------------------------------------------------|
Pm .   .   .   .           .       .       .   .   .   .

===================================================================

Guitar 1 & 3
D#-----------------------------------------------------------------|
A#-----------------------------------------------------------------|
F#-7-------7-------10--10--10--10----------------------------------|
C#-7-------7-------10--10--10--10----------------------------------|
G#-5-------5-------8---8---8---8-----------------------------------|
C#-----------------------------------------2*b~~~~~~~~~~~~~~~~~~~~-|
Pm .       .       .   .   .   .

Guitar 2
D#-----------------------------------------------------------------|
A#-----------------------------------------------------------------|
F#-7-------7-------10--10--10--10----------------------------------|
C#-7-------7-------10--10--10--10----------------------------------|
G#-5-------5-------8---8---8---8-----------7*b~~~~~~~~~~~~~~~~~~~~-|
C#-----------------------------------------------------------------|
Pm .       .       .   .   .   .

===================================================================

All Guitars
D#-----------------------------------------------------------------|
A#-----------------------------------------------------------------|
F#-7---7---7---7-----------7-------7-------7---7---7---7-----------|
C#-7---7---7---7-----------7-------7-------7---7---7---7-----------|
G#-5---5---5---5-----------5-------5-------5---5---5---5-----------|
C#-----------------------------------------------------------------|
Pm .   .   .   .           .       .       .   .   .   .

===================================================================

Guitar 1 & 3
D#-----------------------------------------------------------------|
A#-----------------------------------------------------------------|
F#-7-------7-------------------------------------------------------|
C#-7-------7-------------------------------------------------------|
G#-5-------5-------------------------------------------------------|
C#-----------------3---3---3---3-----------2*b~~~~~~~~~~~~~~~~~~~~-|
Pm .       .

Guitar 2
D#-----------------------------------------------------------------|
A#-----------------------------------------------------------------|
F#-7-------7-------------------------------------------------------|
C#-7-------7-------------------------------------------------------|
G#-5-------5-------------------------------7*b~~~~~~~~~~~~~~~~~~~~-|
C#-----------------3---3---3---3-----------------------------------|
Pm .       .

===================================================================
===================================================================

Breakdown 2  I Won't Be Pushed Aside
             I Will Be Heard
             I Will Get What I Want
             What I Deserve

(x2)

Guitar 1 & 3
D#-----------------------------------------------------------------|
A#-----------------------------------------------------------------|
F#-----------------------------------------------------------------|
C#-0---0---0---0-----------0-------0-------0---0---0---0-----------|
G#-0---0---0---0-----------0-------0-------0---0---0---0-----------|
C#-0---0---0---0-----------0-------0-------0---0---0---0-----------|

Guitar 2
D#-----------------------------------------------------------------|
A#-10--10--10--10----------10------10------10--10--10--10----------|
F#-14--14--14--14----------14------14------14--14--14--14----------|
C#-12--12--12--12----------12------12------12--12--12--12----------|
G#-----------------------------------------------------------------|
C#-----------------------------------------------------------------|

===================================================================

Guitar 1 & 3
D#-----------------------------------------------------------------|
A#-----------------------------------------------------------------|
F#-----------------------------------------------------------------|
C#-0-------0~~~~~~-3---3---3---3-----------2~~~~~~~~~~~~~~~~~~~~~~-|
G#-0-------0~~~~~~-3---3---3---3-----------2~~~~~~~~~~~~~~~~~~~~~~-|
C#-0-------0~~~~~~-3---3---3---3-----------2~~~~~~~~~~~~~~~~~~~~~~-|

Guitar 2
D#-----------------------------------------------------------------|
A#-10------10~~~~~-11--11--11--11----------10~~~~~~~~~~~~~~~~~~~~~-|
F#-14------14~~~~~-15--15--15--15----------14~~~~~~~~~~~~~~~~~~~~~-|
C#-12------12~~~~~-13--13--13--13----------10~~~~~~~~~~~~~~~~~~~~~-|
G#-----------------------------------------------------------------|
C#-----------------------------------------------------------------|

===================================================================
===================================================================

Interlude  We're Falling And We're
           Losing Control
           You're Pulling Us
           Dragging Us, Down This Dead End Road

Guitar 1
D#-----------------------------------------------------------------
A#-13~~~~~~~~~~~~~~~~~~~~~~~~~~~~~~~~~~~~~~~~~~~~~~~~~~~~~~~~~~~~~~
F#-----------------------------------------------------------------|
C#-----------------------------------------------------------------|
G#-----------------------------------------------------------------|
C#-----------------------------------------------------------------|

Guitar 2 (Phaser)
D#-----------------------------------------------------------------|
A#-----------------------------------------------------------------|
F#-3---3---3---3---3---3---3---3---3---3---3---3---3---3---3---3---|
C#-3---3---3---3---3---3---3---3---3---3---3---3---3---3---3---3---|
G#-1---1---1---1---1---1---1---1---1---1---1---1---1---1---1---1---|
C#-----------------------------------------------------------------|
Pm .   .   .   .   .   .   .   .   .   .   .   .   .   .   .   .

===================================================================

Guitar 1
D#-----------------------------------------------------------------
A#-~~~~~~~~~~~~~~~~~~~~~~~~~~~~~~~~~~~~~~~~~~~~~~~~~~~~~~~~~~~-15~~
F#-----------------------------------------------------------------|
C#-----------------------------------------------------------------|
G#-----------------------------------------------------------------|
C#-----------------------------------------------------------------|

Guitar 2
D#-----------------------------------------------------------------|
A#-----------------------------------------------------------------|
F#-5---5---5---5---5---5---5---5---5---5---5---5---5---5---5---5---|
C#-5---5---5---5---5---5---5---5---5---5---5---5---5---5---5---5---|
G#-3---3---3---3---3---3---3---3---3---3---3---3---3---3---3---3---|
C#-----------------------------------------------------------------|
Pm .   .   .   .   .   .   .   .   .   .   .   .   .   .   .   .

===================================================================

Guitar 1
D#-----------------------------------------------------------------
A#-~~~~~~~~~~~~~~~~~~~~~~~~~~~~~~~~~~~~~~~~~~~~~~~~~~~~~~~~~~~-16~~
F#-----------------------------------------------------------------|
C#-----------------------------------------------------------------|
G#-----------------------------------------------------------------|
C#-----------------------------------------------------------------|

Guitar 2
D#-----------------------------------------------------------------|
A#-----------------------------------------------------------------|
F#-6---6---6---6---6---6---6---6---6---6---6---6---6---6---6---6---|
C#-6---6---6---6---6---6---6---6---6---6---6---6---6---6---6---6---|
G#-4---4---4---4---4---4---4---4---4---4---4---4---4---4---4---4---|
C#-----------------------------------------------------------------|
Pm .   .   .   .   .   .   .   .   .   .   .   .   .   .   .   .

===================================================================

Guitar 1
D#-----------------------------------------------------------------
A#-~~~~~~~~~~~~~~~~~~~~~~~~~~~~~~~~~~~~~~~~~~~~~~~~~~~~~~~~~~~~~~~-
F#-----------------------------------------------------------------|
C#-----------------------------------------------------------------|
G#-----------------------------------------------------------------|
C#-----------------------------------------------------------------|

Guitar 2
D#-----------------------------------------------------------------|
A#-----------------------------------------------------------------|
F#-7---7---7---7---7---7---7---7---5---5---5---5---5---------------|
C#-7---7---7---7---7---7---7---7---5---5---5---5---5---------------|
G#-5---5---5---5---5---5---5---5---3---3---3---3---3---------------|
C#-----------------------------------------------------------------|
Pm .   .   .   .   .   .   .   .   .   .   .   .

===================================================================
===================================================================

Chorus 2  Your Magic, White Rabbit
          Has Left His Writing On The Wall
          We Follow, Like Alice
          And Just Keep Diving Down The Hole
          We're Falling And We're
          Losing Control
          You're Pulling Us
          Dragging Us, Down This Dead End Road
          Your Magic, White Rabbit
          Has Left His Writing On The Wall
          We Follow, Like Alice
          And Just Keep Diving Down The...

Guitar 1 & 3
D#-----------------------------------------------------------------|
A#-----------------------------------------------------------------|
F#-----------------------------------------------------------------|
C#-0---0---0---0---0---0---0---0---3---3---3---3---3---3---3---3---|
G#-0---0---0---0---0---0---0---0---3---3---3---3---3---3---3---3---|
C#-0---0---0---0---0---0---0---0---3---3---3---3---3---3---3---3---|

Guitar 2
D#-----------------------------------------------------------------|
A#-----------------------------------------------------------------|
F#-------------10--10--9---9---10--------------10--10--9---9---7---|
C#-0~~~~~~~~~~---------------------0~~~~~~~~~~---------------------|
G#-----------------------------------------------------------------|
C#-----------------------------------------------------------------|

===================================================================

Guitar 1 & 3
D#-----------------------------------------------------------------|
A#-----------------------------------------------------------------|
F#-----------------------------------------------------------------|
C#-8---8---8---8---8---8---8---8---8---10~~~~~-10~~~~~-10--10--10--|
G#-8---8---8---8---8---8---8---8---8---10~~~~~-10~~~~
Добавлено: 09.05.2012
Другие материалы по этой песне:
  • Аккорды и текст

Страница создана 09.05.2012
http://primanota.ru/egypt-central/white-rabbit-chords.htm
Привет, Гость.
Предлагаем пройти революционный курс по гитаре.
Подарок от PrimaNota.Ru, забирай!