PrimaNota.ru - самый крупный в мире бесплатный архив песенных текстов, аккордов, табулатур и нот


Egypt Central - Down In Flames - таба, видео

Регистрация Запомнить меня
Войти через:  Facebook Google Twitter Vk Yandex Mail.ru

Egypt Central - Down In Flames - таба, видео

Печатать
Просмотров: 361
INTRO x2

Eb|--------------------------------------------------|
Bb|--------------------------------------------------|
Gb|--------------------------------------------------|
Db|--------------------------------------------------|
Ab|--2-2--0-2--0-2--x-x-x-x--0-2-0-2-0-0-3--3-2-0----|
Db|--2-2--0-2--0-2--x-x-x-x--0-2-0-2-0-0----------5--|

Eb|--------------------------------------------------| 
Bb|-----------------5-5-5-5--------------------------|
Gb|--------------------------------------------------|
Db|--------------------------------------------------|
Ab|--2-2--0-2--0-2-----------0-2-0-2-0-0-3--3-2-0----|
Db|--2-2--0-2--0-2-----------0-2-0-2-0-0----------5--|



VERSE

Eb|--------------------------------------------------|
Bb|--------------------------------------------------|
Gb|--------------------------------------------------|
Db|-----------0-----------0-----------0--------------|
Ab|--2-2-2-2-----2-2-2-2-----2-2-2-2-----2-2-2-2--4--|
Db|--2-2-2-2-----2-2-2-2-----2-2-2-2-----2-2-2-2--4--|

Eb|--------------------------------------------------|
Bb|--------------------------------------------------|
Gb|-----------0-----------0--------------------------|
Db|-----------------------------------0-----------0--|
Ab|--5-5-5-5-----5-5-5-5-----7-7-7-7-----7-7-7-7-----|
Db|--5-5-5-5-----5-5-5-5-----7-7-7-7-----7-7-7-7-----|



CHORUS


Eb|--------------------------------------------------|
Bb|--------------------------------------------------|
Gb|--------------------------------------------------|
Db|--------------------------------------------------|
Ab|--2-2--0-2--0-2--x-x-x-x--0-2-0-2-0-0-3--3-2-0----|
Db|--2-2--0-2--0-2--x-x-x-x--0-2-0-2-0-0----------5--|

Eb|--------------------------------------------------| 
Bb|-----------------5-5-5-5--------------------------|
Gb|--------------------------------------------------|
Db|--------------------------------------------------|
Ab|--2-2--0-2--0-2-----------0-2-0-2-0-0-3--3-2-0----|
Db|--2-2--0-2--0-2-----------0-2-0-2-0-0----------5--|

Eb|--------------------------------------------------|
Bb|--------------------------------------------------|
Gb|--------------------------------------------------|
Db|--------------------------------------------------|
Ab|--2-2--0-2--0-2--x-x-x-x--0-2-0-2-0-0-3--3-2-0----|
Db|--2-2--0-2--0-2--x-x-x-x--0-2-0-2-0-0----------5--|

Eb|--------------------------------------------|
Bb|----------------5-5-5-----------------------|
Gb|--------------------------------------------|
Db|--------------------------------------------|
Ab|--2-2--0-2--2-2-------10--9--7-5--10---\2~--|
Db|--2-2--0-2--2-2-------10--9--7-5--10---\2~--|



VERSE

Eb|--------------------------------------------------|
Bb|--------------------------------------------------|
Gb|--------------------------------------------------|
Db|-----------0-----------0-----------0--------------|
Ab|--2-2-2-2-----2-2-2-2-----2-2-2-2-----2-2-2-2--4--|
Db|--2-2-2-2-----2-2-2-2-----2-2-2-2-----2-2-2-2--4--|

Eb|--------------------------------------------------|
Bb|--------------------------------------------------|
Gb|-----------0-----------0--------------------------|
Db|-----------------------------------0-----------0--|
Ab|--5-5-5-5-----5-5-5-5-----7-7-7-7-----7-7-7-7-----|
Db|--5-5-5-5-----5-5-5-5-----7-7-7-7-----7-7-7-7-----|



CHORUS

Eb|--------------------------------------------------|
Bb|--------------------------------------------------|
Gb|--------------------------------------------------|
Db|--------------------------------------------------|
Ab|--2-2--0-2--0-2--x-x-x-x--0-2-0-2-0-0-3--3-2-0----|
Db|--2-2--0-2--0-2--x-x-x-x--0-2-0-2-0-0----------5--|

Eb|--------------------------------------------------| 
Bb|-----------------5-5-5-5--------------------------|
Gb|--------------------------------------------------|
Db|--------------------------------------------------|
Ab|--2-2--0-2--0-2-----------0-2-0-2-0-0-3--3-2-0----|
Db|--2-2--0-2--0-2-----------0-2-0-2-0-0----------5--|

Eb|--------------------------------------------------|
Bb|--------------------------------------------------|
Gb|--------------------------------------------------|
Db|--------------------------------------------------|
Ab|--2-2--0-2--0-2--x-x-x-x--0-2-0-2-0-0-3--3-2-0----|
Db|--2-2--0-2--0-2--x-x-x-x--0-2-0-2-0-0----------5--|

Eb|--------------------------------------------|
Bb|----------------5-5-5-----------------------|
Gb|--------------------------------------------|
Db|--------------------------------------------|
Ab|--2-2--0-2--2-2-------10--9--7-5--10---\2~--|
Db|--2-2--0-2--2-2-------10--9--7-5--10---\2~--|



SOLO

1st guitar

I'm not tabbing the solo right now, because personally I don't really like 
it, and I like the rhythm guitar better.  But feel free to figure it out 
yourself; I might decide to do it later.

2nd guitar
Eb|------------------------------------------------------|
Bb|------------------------------------------------------|
Gb|------------------------------------------------------|
Db|------------------------------------------------------|
Ab|--2p0-0-2--2--2-2p0-0-2--2--2-2p0-0-2--10-9--7-5p0-2--|
Db|--2p0-0-2--2--2-2p0-0-2--2--2-2p0-0-2--10-9--7-5p0-2--| x3

Eb|-------------------------------------------------|
Bb|-------------------------------------------------|
Gb|-------------------------------------------------|
Db|-------------------------------------------------|
Ab|--2p0-0-2--2--2-2p0-0-2--2--2-2p0-0-2--10---10\--|
Db|--2p0-0-2--2--2-2p0-0-2--2--2-2p0-0-2--10---10\--|



CHORUS x2

Eb|--------------------------------------------------|
Bb|--------------------------------------------------|
Gb|--------------------------------------------------|
Db|--------------------------------------------------|
Ab|--2-2--0-2--0-2--x-x-x-x--0-2-0-2-0-0-3--3-2-0----|
Db|--2-2--0-2--0-2--x-x-x-x--0-2-0-2-0-0----------5--|

Eb|--------------------------------------------------| 
Bb|-----------------5-5-5-5--------------------------|
Gb|--------------------------------------------------|
Db|--------------------------------------------------|
Ab|--2-2--0-2--0-2-----------0-2-0-2-0-0-3--3-2-0----|
Db|--2-2--0-2--0-2-----------0-2-0-2-0-0----------5--|

Eb|--------------------------------------------------|
Bb|--------------------------------------------------|
Gb|--------------------------------------------------|
Db|--------------------------------------------------|
Ab|--2-2--0-2--0-2--x-x-x-x--0-2-0-2-0-0-3--3-2-0----|
Db|--2-2--0-2--0-2--x-x-x-x--0-2-0-2-0-0----------5--|

Eb|--------------------------------------------|
Bb|----------------5-5-5-----------------------|
Gb|--------------------------------------------|
Db|--------------------------------------------|
Ab|--2-2--0-2--2-2-------10--9--7-5--10---\2~--|
Db|--2-2--0-2--2-2-------10--9--7-5--10---\2~--|
Добавлено: 10.06.2012
Другие материалы по этой песне:
  • Аккорды и текст

Страница создана 10.06.2012
http://primanota.ru/egypt-central/down-in-flames-chords.htm
Привет, Гость.
Предлагаем пройти революционный курс по гитаре.
Подарок от PrimaNota.Ru, забирай!