PrimaNota.ru - самый крупный в мире бесплатный архив песенных текстов, аккордов, табулатур и нот


Edward Elgar - Op 39 Pomp And Circumstance - March No 1 In D - таба, видео

Регистрация Запомнить меня
Войти через:  Facebook Google Twitter Vk Yandex Mail.ru

Edward Elgar - Op 39 Pomp And Circumstance - March No 1 In D - таба, видео

Печатать
Просмотров: 199
Pomp and Circumstance March - No 1 in D - Edward Elgar (1857-1934)
------------------------------------------------------------------

Arranged for guitar by Jan Tomaszewski - laertes@interia.pl

Key: C major

Alla Marcia
------------

E||--8----8----|--7--8--10----|--5---------|--3---------|--1----1----|
B||--8----8----|--6-----------|------------|--1----1----|--1----1----|
G||--9----9----|--4-----10----|--5----5----|--0----0----|--2----2----|
D||------------|--------------|--5----5----|--2----2----|--3----3----|
A||------------|--------------|--7----7----|------------|------------|
E||--8----8----|--------------|------------|------------|------------|


--0-----3----|------------|------------|--0---------|--2--3-----5--|
-----6-------|--3---------|--3----0----|--1---------|--3-----------|
--5-----5----|--5----5----|--4---------|--0----0----|--2-----2-----|
--5-----5----|--4----4----|------------|------------|--------------|
-------------|--0----0----|------------|--3----3----|--3-----3-----|
-------------|------------|--3----3----|------------|--------------|


--10---------|--0---------|--8----8----|--8--7-----7-5-|--7---------|
--8----------|--8----0----|--8----8----|--7------------|--0---------|
--0-----0----|------------|--9----9----|---------------|--0---------|
-------------|--9---------|------------|--0-----0------|-------3----|
-------------|-------7----|--0----0----|---------------|------------|
--------7----|------------|------------|---------------|------------|


--3---------|--8----8-----|--7---8--10----|--5---------|--3---------|
--0---------|--8----8-----|---------------|------------|--1----1----|
------------|--9----9-----|--10-----10----|--5----5----|--0----0----|
--2----0----|-------10----|--9------0-----|--5----5----|--2----2----|
------------|-------------|---------------|--7----7----|------------|
------------|--8----------|---------------|------------|------------|


--1----1----|--0-----3----|------------|------------|--0-------0--|
--1----1----|-----6-------|--3---------|--3----0----|--1----------|
--2----2----|--5-----5----|--5----5----|--4---------|--0----0-----|
--3----3----|--5-----5----|--4----4----|------------|-------------|
------------|-------------|--0----0----|------------|--3----3-----|
------------|-------------|------------|--3----3----|-------------|


--2--3-----5--|--10---------|--3---------|--13----13----|--13--12-----12-10-|
--3-----------|--8----------|--3---------|--13----13----|--12---------------|
--2-----2-----|--0-----0----|--0----0----|--------------|--0-------0--------|
--------------|-------------|------------|--------------|-------------------|
--3-----3-----|-------------|--2----2----|--------------|-------------------|
--------------|--------7----|------------|--13----13----|-------------------|


--12----8----|--12----0-----|--5-------5--|--7--8-----10--|--0---------|
--------5----|--12----11----|--6----------|--5------------|--8---------|
--------5----|--9-----------|-------------|--0------------|------------|
--10---------|--10----10----|--3----------|--------0------|------------|
-------------|--------------|-------3-----|---------------|------------|
-------------|--------------|-------------|---------------|--0----8----|


--8---------|--8--------|--13----12----|--------10----|--8--------|----------||
------------|--6--------|--------------|--------------|-----------|----------||
--9---------|-----------|--0-----------|--12----------|--9--------|----------||
------------|--0--------|--------------|--------------|-----------|----------||
--0----7----|-----------|--------------|--------------|-----------|----------||
------------|-----------|--------------|--------------|--8--------|----------||
Добавлено: 23.02.2012
Другие материалы по этой песне:
  • Аккорды и текст

Страница создана 23.02.2012
http://primanota.ru/edward-elgar/op-39-pomp-and-circumstance-march-no-1-in-d-chords.htm
Привет, Гость.
Предлагаем пройти революционный курс по гитаре.
Подарок от PrimaNota.Ru, забирай!