PrimaNota.ru - самый крупный в мире бесплатный архив песенных текстов, аккордов, табулатур и нот


Edward Elgar - Pomp And Circumstance - таба, видео

Регистрация Запомнить меня
Войти через:  Facebook Google Twitter Vk Yandex Mail.ru

Edward Elgar - Pomp And Circumstance - таба, видео

Печатать
Просмотров: 320
Here's pomp and circumstance lead and rhythm parts in the key of Eb. (flat tuning)


Lead

eb------------------------------------------------------|
Bb------------------------------------------------------|
Gb--9----8-9-10--6----4----2----1-2-4-------------------|
Db--6----7-----------------------------4----------------|
Ab------------------------------------------------------|
Eb------------------------------------------------------|

eb------------------------------------------------------|
Bb--------------7---------5-----------------------------|
Gb--1----2-4--6-6----4----4----5-4--2-0-----------------|
Db--------------8---------6----2------------------------|
Ab------------------------------------------------------|
Eb------------------------------------------------------|

eb------------------------------------------------------|
Bb------------------------------------------------------|
Gb--9----8-9-10--6----4----2----1-2-4-------------------|
Db--6----7-----------------------------4----------------|
Ab------------------------------------------------------|
Eb------------------------------------------------------|

eb------------------------5----5-4--2-4-----------------|
Bb--------------7---------6--------------5--4--3--------|
Gb--1----2-4--6-6----4----6-----------------------------|
Db--------------8---------------------------------------|
Ab------------------------------------------------------|
Eb------------------------------------------------------|

eb---------0--2------5----0----5-4--2-0-----0hold-------|
Bb--2----4------0----0----2----4------------0hold-------|
Gb------------------------------------------1hold-------|
Db------------------------------------------2hold-------|
Ab------------------------------------------2hold-------|
Eb------------------------------------------0hold-------|


Rhythm

Eb----------------------------------------------------|
Bb----------------------------------------------------|
Gb----------------------------------------------------|
Db----------------------------------------------------|
Ab--2--2--2--2--7--7--7--7--7--7--7--7--4--7--6-------|
Eb--0--0--2--2--4--4--4--4--9--9--7--7--6-----7--7----|

Eb----------------------------------------------------|
Bb----------------------------------------------------|
Gb----------------------------------------------------|
Db-----------------------------------------7----------|
Ab--2--2--4--4--6--6--6--6--4--4--4--4--6-----9-------|
Eb--0--0--0--0--------4--4--------2--2--7--------7----|

Eb----------------------------------------------------|
Bb----------------------------------------------------|
Gb----------------------------------------------------|
Db----------------------------------------------------|
Ab--2--2--2--2--7--7--7--7--7--7--7--7--4--7--6-------|
Eb--0--0--2--2--4--4--4--4--9--9--7--7--6-----7--7----|

Eb----------------------------------------------------|
Bb----------------------------------------------------|
Gb--------------------------------2--2--1-------------|
Db--------------------------------x--x--2--2----------|
Ab--2--2--4--4--6--6--6--6--4--4--2--2----------------|
Eb--0--0--0--0--------4--4--------------------2--4----|

Eb--------------------------------------------0hold---|
Bb--------------------------------------------0hold---|
Gb--------------------------------------1-----1hold---|
Db--------------------6--6--7--7--7--7--2-----2hold---|
Ab--7--7--9--9--7--7--4--4--9--9--x--x-----2--2hold---|
Eb--5--5--5--5--4--4--------------7--7--------0hold---|
Добавлено: 08.07.2012
Другие материалы по этой песне:

Страница создана 04.03.2012
http://primanota.ru/edward-elgar/pomp-and-circumstance-chords.htm
Привет, Гость.
Предлагаем пройти революционный курс по гитаре.
Подарок от PrimaNota.Ru, забирай!