PrimaNota.ru - самый крупный в мире бесплатный архив песенных текстов, аккордов, табулатур и нот


Григ Эдвард - Op 47 No 3 - Melodie In Am - таба, видео

Регистрация Запомнить меня
Войти через:  Facebook Google Twitter Vk Yandex Mail.ru

Григ Эдвард - Op 47 No 3 - Melodie In Am - таба, видео

Печатать
Просмотров: 320
Lyric Pieces 4, Melodie in Am Op 47 No 3 - Edvard Grieg (1843-1907)

Tab originally by Ola Bush - daddy@sverige.nu
Modified by Stuart Webner - brainbasher90@hotmail.com - July 21, 2008

 6/8

|-3----3----|------3-2---2-|-----------|--------------|------------|
|-0----0----|----------5---|-3----3----|------5-------|-0----0-----|
|----4----4-|-4--4-4-----4-|-4--4-4--4-|-4--4---7-5-7-|-4----4-----|
|-2--2-2--2-|-2--2-2-----2-|-5--5-5--5-|-5--5-5-----5-|-4--4-4--4--|
|-----------|--------------|----7-7----|------7-----7-|-5--5-5--5--|
|-0---------|--------------|-----------|--------------|------------|

|--------------|-----------|-----------|-8----8----|------8-7-5-7-|
|--------------|-----------|-----------|-----------|------------5-|
|------4-2-0-2-|-4----4----|-----------|-9--9-9--9-|-9--9-9-------|
|-2--2-2-----2-|-4----4----|-----------|-7--7-7--7-|-7--7-7-----7-|
|-3--3-3-----3-|-6--6-6--6-|-6--6-6--6-|-0---------|--------------|
|--------------|-7--7-7--7-|-7--7-7--7-|-----------|--------------|

|-3----3----|------5-3---3-|-0----0----|----0-------|-----------|-------------|
|-5--5-5--5-|-5--5-----6---|-5----5----|------3-1-3-|-0----0----|-------------|
|-5--5-5--5-|-5--5-5-----5-|-4--4-4--4-|-2--2-2---2-|-1--1-1--1-|-1--1-1--1---|
|-----------|--------------|-----------|------------|-----------|-------------|
|-0---------|--------------|-----------|-2--2-2---2-|-2--2-2--2-|-2--2-2--2---|
|----5-5----|-5--5-5-----5-|-3--3-3--3-|-1--1-1---1-|-0--0-0--0-|-0--0-0--0---|

|-----------|--------------|-----------|-----------|-----------|
|-3----3----|------3-1-0-1-|-3----3----|------3----|-6----6----|
|-2--2-2--2-|-2--2---2---2-|-1--1-1--1-|-1--1-1--1-|-5--5-5--5-|
|-----------|--------------|-----------|-----------|-----------|
|-2--2-2--2-|-2--2---2---2-|-3--3-3--3-|-3--3-3--3-|-5--5-5--5-|
|-1--1-1--1-|-1--1---1---1-|-1--1-1--1-|-2--2-2--2-|-4--4-4--4-|

|--------------|-----------|-----------|-4----4----|------4-2-1-2-|
|------6-4---4-|-6----6----|-----------|-4--4-4--4-|-4--4-4-----4-|
|-5--5-5---7-5-|-4--4-4--4-|-4--4-3--3-|-----------|--------------|
|--------------|-----------|------1--1-|-3--3-3--3-|-3--3-3-----3-|
|-5--5-5-------|-6--6-6--6-|-6--6-1--1-|-2--2-2--2-|-2--2-2-----2-|
|-4--4-4-----4-|-4--4-4--4-|-5--5------|-----------|--------------|

|-4----4----|----------------------|-4----4----|
|-3--3-3--3-|-3--5--7--9--10--12---|-4--4-4--4-|
|-----------|----------------------|-----------|
|-2--2-2--2-|-2--------------------|-3--3-3--3-|
|-2--2-2--2-|-2--------------------|-2--2-2--2-|
|-----------|----------------------|-----------|

|------4-2-1-2-|-4----4----|------------------------|
|-4--4-4-----4-|-3--3-3--3-|-3--5--7--9--10-12------|
|--------------|-----------|------------------------|
|-3--3-3-----3-|-2--2-2--2-|-2----------------------|
|-2--2-2-----2-|-2--2-2--2-|-2----------------------|
|--------------|-----------|------------------------|

|-8--10-12--------|----10h12p10--------|-----------|------------|-3—5-7-----|
|-6------------10-|-10---------13------|-5----5----|------4-5-7-|---------5-|
|--------------10-|-10-----------14----|-5--5-5--5-|-5--5-5---5-|-5-------5-|
|-7------------10-|-10--------------15-|-4--4-4--4-|-4--4-4---4-|---------5-|
|-----------------|--------------------|-0--0-0--0-|-0--0-0---0-|-----------|
|-8---------------|--------------------|-----------|------------|-3---------|

|----5h7p5----------|-----------|-----------|-3----3----|------3-2---2-|
|-5--------8--------|-0----0----|-----------|-0----0----|----------5---|
|-5-----------9-----|-2--2-2--2-|-2--2-2--2-|----4----4-|-4--4-4-----4-|
|-5--------------10-|-1--1-1--1-|-1--1-1--1-|-2--2-2--2-|-2--2-2-----2-|
|-------------------|-----------|-----------|-----------|--------------|
|-------------------|-2--2-2--2-|-1--1-1--1-|-0---------|--------------|

|-----------|--------------|-----------|--------------|-----------|
|-3----3----|------5-------|-----------|--------------|-----------|
|-4----4--4-|-4--4---7-5-7-|-4----4----|------4-2-0-2-|-4----4----|
|-5--5-5--5-|-5--5-5-----5-|-4--4-4--4-|-2--2---2-----|-4--4-4----|
|-7--7-7--7-|-7--7-7-----7-|-5--5-5--5-|-3--3---3---3-|-6--6-6--6-|
|-----------|--------------|-----------|--------------|-7--7-7--7-|

|-----------|-8----8----|------8-7-5-7-|-3----3----|------5-3---3-|
|-----------|-----------|------------5-|-5--5-5--5-|-5--5-----6---|
|-----------|-9--9-9--9-|-9--9-9-------|-5--5-5--5-|-5--5-5-----5-|
|-----------|-7--7-7--7-|-7--7-7-----7-|-----------|--------------|
|-6--6-6--6-|-0---------|--------------|-----------|--------------|
|-7--7-7--7-|-----------|--------------|-5----5----|-5----5-----5-|

|-----------|----0-------|-----------|-----------|-----------|----------------|
|-5----5----|------3-1-3-|-0----0----|-----------|-3----3----|------3-1-0-1---|
|-4--4-4--4-|-2----2---2-|-1--1-1--1-|-1--1-1--1-|-2--2-2--2-|-2--2-2-----2---|
|-----------|------------|-----------|-----------|-----------|----------------|
|-----------|-2----2---2-|-2--2-2--2-|-2--2-2--2-|-2--2-2--2-|-2--2-2-----2---|
|-3--3-3--3-|-1----1---1-|-0--0-0--0-|-0--0-0--0-|-1--1-1--1-|-1--1-1-----1---|

|-----------|-----------|-----------|--------------|-----------|-------------|
|-3----3----|------3----|-6----6----|------6-4---4-|-6----6----|-------------|
|-1--1-1--1-|-1--1-1--1-|-5--5-5--5-|-5--5-5---7-5-|-4--4-4--4-|-4--4-3--3---|
|-----------|-----------|-----------|--------------|-----------|------1--1---|
|-3--3-3--3-|-3--3-3--3-|-5--5-5--5-|-5--5-5-----5-|-6--6-6--6-|-6--6-1--1---|
|-1--1-1--1-|-2--2-2--2-|-4--4-4--4-|-4--4-4-----4-|-4--4-4--4-|-5--5--------|

|-4----4----|------4-2-1-2-|-4----4----|-----------------------|-4----4----|
|-4--4-4--4-|-4--4-4-----4-|-3--3-3--3-|-3--5--7—-9—10--12-----|-4--4-4--4-|
|-----------|--------------|-----------|-----------------------|-----------|
|-3--3-3--3-|-3--3-3-----3-|-2--2-2--2-|-2---------------------|-3--3-3--3-|
|-2--2-2--2-|-2--2-2-----2-|-2--2-2--2-|-2---------------------|-2--2-2--2-|
|-----------|--------------|-----------|-----------------------|-----------|

|------4-2-1-2-|-4----4----|---------------------|-8--10-12--------|
|-4--4-4-----4-|-3--3-3--3-|-3--5—-7--9--10--12--|-6------------10-|
|--------------|-----------|---------------------|--------------10-|
|-3--3-3-----3-|-2--2-2--2-|-2-------------------|-7------------10-|
|-2--2-2-----2-|-2--2-2--2-|-2-------------------|-----------------|
|--------------|-----------|---------------------|-8---------------|

|-----10h12p10-------------|-----------|------------|-3---5--7--0-|
|-10------------13---------|-5----5----|------4-5-7-|-----------5-|
|-10---------------14------|-5--5-5--5-|-5--5-5---5-|-5---------5-|
|-10------------------15---|-4--4-4--4-|-4--4-4---4-|-5---------5-|
|--------------------------|-0--0-0--0-|-0--0-0---0-|-------------|
|--------------------------|-----------|------------|-3-----------|

|-0—--5h7p5---------|-----------|-------------|
|-5----------8------|-0----0----|-------------|
|-5------------9----|-2--2-2--2-|-2--2-2--2---|
|-5--------------10-|-1--1-1--1-|-1--1-1--1---|
|-------------------|-----------|-------------|
|-------------------|-2--2-2--2-|-1--1-1--1---|

|-3----3----|------3-2---2-|-----------|--------------|-----------|
|-0----0----|----------5---|-3----3----|------5-------|-----------|
|----4-4--4-|-4--4-4-----4-|-4--4-4--4-|-4--4---7-5-7-|-4----4----|
|-2--2-2--2-|-2--2-2-----2-|-5--5-5--5-|-5--5-5-----5-|-4--4-4--4-|
|-----------|--------------|-7--7-7--7-|-7--7-7-----7-|-5--5-5--5-|
|-0---------|--------------|-----------|--------------|-----------|

|--------------|-----------|-----------|-8----8----|------8-7-5-7-|
|--------------|-----------|-----------|-----------|------------5-|
|------4-2-0-2-|-4----4----|-----------|-9--9-9--9-|-9--9-9-------|
|-2--2---2---2-|-4----4----|-----------|-7--7-7--7-|-7--7-7-----7-|
|-3--3---3---3-|-6--6-6--6-|-6--6-6--6-|-0----0----|--------------|
|--------------|-7--7-7--7-|-7--7-7--7-|-0---------|--------------|

|-3----3----|-----------|-5-3---3-0---|-0-----0-------|-----------|-----------|
|-5--5-5--5-|-5--5-5--5-|-----6---5---|-5-------3-1-3-|-0----0----|-----------|
|-5--5-5--5-|-5--5-5--5-|-5-----5-4-4-|-4-4--2--2---2-|-1--1-1--1-|------2----|
|-----------|-----------|-------------|---------------|-----------|-3--3-3--3-|
|-0---------|-----------|-------------|------2--2---2-|-2--2-2--2-|-3--3-3--3-|
|----5-5--5-|-5--5-5--5-|-5-----5-3-3-|-3-3--1--1---1-|-0--0-0--0-|-0--0-0--0-|

|-----------|-3===----1---|-0----0----|-----1---3-|-----------|---------------|
|------0----|-4===--------|-----------|-4---------|-5----5----|------6----8---|
|-0----0----|-2===--------|-1--1-1--1-|-2---------|-4--4-4--4-|-8-------------|
|-2--2-2--2-|-------------|-----------|-----------|-6--6-6--6-|-7-------------|
|-2--2-2--2-|-3===--------|-----------|-3===------|-----------|---------------|
|-0--0-0--0-|-------------|-0--0-0--0-|-----------|-0--0-0--0-|-8===----------|

|---------|-0------|-0------||
|---------|-0------|-0------||
|--9------|-1------|-1------||
|---------|-2------|-2------||
|-11------|--------|-2------||
|--0------|-0------|-0------||
Добавлено: 17.03.2012
Другие материалы по этой песне:
  • Аккорды и текст

Страница создана 17.03.2012
http://primanota.ru/edvard-grieg/op-47-no-3-melodie-in-am-chords.htm
Привет, Гость.
Предлагаем пройти революционный курс по гитаре.
Подарок от PrimaNota.Ru, забирай!