PrimaNota.ru - самый крупный в мире бесплатный архив песенных текстов, аккордов, табулатур и нот


Григ Эдвард - Melody - таба, видео

Регистрация Запомнить меня
Войти через:  Facebook Google Twitter Vk Yandex Mail.ru

Григ Эдвард - Melody - таба, видео

Печатать
Просмотров: 243
MELODY (FOR GUITAR)
By Edvard Grieg



Level: Advanced beginner

 
Written by GRIEG
Tab by Ola Bush  daddy@sverige.nu 


  Q=100
 6/8
  Gtr I
|-3----3----|------3-2-0-2-|-----------|------0-------|------------|
|-0----0----|--------0-5-0-|-3----3----|------5-------|-0----0-----|
|----4----4-|-4--4---------|-4--0-4--0-|-0--0---7-5-7-|-4----4-----|
|-2--2-2--2-|-2--2---2---2-|-5--2-5--2-|-2--2---5---5-|-4--4-4--4--|
|-----------|--------------|-7----7----|--------7---7-|-5--5-5--5--|
|-0---------|--------------|-----------|--------------|------------|


|--------------|-----------|-----------|-8----8----|------8-7-5-7-|
|------0-------|-----------|-----------|-----------|------------5-|
|------4-2-0-2-|-----------|-----------|-9--9-9--9-|-9--9---9-----|
|-2--2---2-5---|-4----4----|-----------|-7--7-7--7-|-7--7---7---7-|
|-3--3---3---3-|-6--6-6--6-|-6--6-6--6-|-0---------|--------------|
|--------------|-7--7-7--7-|-7--7-7--7-|-----------|--------------|


                                                                     Q=Q=100
|-3----3----|------5-3-1-3-|-0----0----|----0-------|-----------|-------------|
|-5--5-5--5-|-5--5---5---5-|-5----5----|----5-3-1-3-|-0----0----|-------------|
|-5--5-5--5-|-5--5---5---5-|-4--4-4--4-|-2----2---2-|-1--1-1--1-|-1--1-1--1---|
|-----------|--------------|-----------|------------|-----------|-------------|
|-----------|--------------|-----------|-2----2---2-|-2--2-2--2-|-2--2-2--2---|
|-5----5----|-5------5-----|-3--3-3--3-|-1----1---1-|-0--0-0--0-|-0--0-0--0---|


                                         Q=109
|-----------|--------------|-----------|-----------|-1----1----|
|-3----3----|------3-1-0-1-|-3----3----|------3----|-1--1-1--1-|
|-2--2-2--2-|-2--2---2---2-|-1--1-1--1-|-1--1-1--1-|-----------|
|-----------|--------------|-----------|-----------|-0--0-0--0-|
|-2--2-2--2-|-2--2---2---2-|-3--3-3--3-|-3--3-3--3-|-----------|
|-1--1-1--1-|-1--1---1---1-|-1--1-1--1-|-2--2-2--2-|-4--4-4--4-|


  Q=100
|------1-------|-----------|-----------|-4----4----|------4-2-1-2-|
|-1--1---4-3-4-|-6----6----|------6----|-4--4-4--4-|-4--4---4---4-|
|--------5---5-|-4--4-4--4-|-4--4-3--3-|-----------|--------------|
|-0--0---0---0-|-----------|---------1-|-3--3-3--3-|-3--3---3---3-|
|--------------|-6--6-6--6-|-6--6-6--1-|-2--2-2--2-|-2--2---2---2-|
|-4--4---4---4-|-4--4-4--4-|-5--5-6----|-----------|--------------|


              Q=89                   Q=100
|-4----4----|----------------------|-4----4----|
|-3--3-3--3-|-3-/5-/7-/9-/10-12b14-|-4--4-4--4-|
|-----------|----------------------|-----------|
|-2--2-2--2-|-2--------------------|-3--3-3--3-|
|-2--2-2--2-|-2--------------------|-2--2-2--2-|
|-----------|----------------------|-----------|


|------4-2-1-2-|-4----4----|------------------------|
|-4--4---4---4-|-3--3-3--3-|-3-/5-/7-/9-/10-12b14---|
|--------------|-----------|------------------------|
|-3--3---3---3-|-2--2-2--2-|-2----------------------|
|-2--2---2---2-|-2--2-2--2-|-2----------------------|
|--------------|-----------|------------------------|


  Q=120 Q=100       Q=80         Q=89    Q=100
|-8--10-12b14-----|-----10-12----------|-----------|------------|-3--5s7----|
|-6------------10-|-10-----15-13-------|-5----5----|------4-5-7-|---------5-|
|--------------10-|-10-----------14----|-5--5-5--5-|-5--5-5---5-|-5-------5-|
|-7------------10-|-10--------------15-|-4--4-4--4-|-4--4-4---4-|-2-------5-|
|-----------------|--------------------|-0--0-0--0-|-0--0-0---0-|-----------|
|-8---------------|--------------------|-----------|------------|-3---------|


  Q=69                Q=8Q=Q=75   Q=8Q=Q=69   Q=100
|----10-12----------|-----------|-----------|-3----3----|------3-2---2-|
|-5-----15-13-------|-0----0----|-----------|-0----0----|--------0-5-0-|
|-5-----------14----|-2--2-2--2-|-2--2-2--2-|----4----4-|-4--4---------|
|-5--------------16-|-1--1-1--1-|-1--1-1--1-|-2--2-2--2-|-2--2---2---2-|
|-------------------|-----------|-----------|-----------|--------------|
|-------------------|-2--2-2--2-|-1--1-1--1-|-0---------|--------------|


|-----------|--------------|-----------|--------------|-----------|
|-3----3----|------5-------|-----------|--------------|-----------|
|-4--0-4--0-|-0--0---7-5-7-|-4----4----|------4-2-0-2-|-----------|
|-5--2-5--2-|-2--2---5---5-|-4--4-4--4-|-2--2---2-----|-4----4----|
|-7----7----|--------7---7-|-5--5-5--5-|-3--3---3---3-|-6--6-6--6-|
|-----------|--------------|-----------|--------------|-7--7-7--7-|


|-----------|-8----8----|------8-7-5-7-|-3----3----|------5-3-1-3-|
|-----------|-----------|------------5-|-5--5-5--5-|-5--5---5---5-|
|-----------|-9--9-9--9-|-9--9---9-----|-5--5-5--5-|-5--5---5---5-|
|-----------|-7--7-7--7-|-7--7---7---7-|-----------|--------------|
|-6--6-6--6-|-0---------|--------------|-----------|--------------|
|-7--7-7--7-|-----------|--------------|-5----5----|-5------5-----|


|-----------|----0-------|-----------|-----------|-----------|----------------|
|-5----5----|------3-1-3-|-0----0----|-----------|-3----3----|------3-1-0-1---|
|-4--4-4--4-|-2----2---2-|-1--1-1--1-|-1--1-1--1-|-2--2-2--2-|-2--2---2---2---|
|-----------|------------|-----------|-----------|-----------|----------------|
|-----------|-2----2---2-|-2--2-2--2-|-2--2-2--2-|-2--2-2--2-|-2--2---2---2---|
|-3--3-3--3-|-1----1---1-|-0--0-0--0-|-0--0-0--0-|-1--1-1--1-|-1--1---1---1---|


  Q=109       Q=120       Q=125       Q=100
|-----------|-----------|-1----1----|------1-------|-----------|-------------|
|-3----3----|------3----|-1--1-1--1-|-1--1---4-3-4-|-6----6----|------6------|
|-1--1-1--1-|-1--1-1--1-|-----------|--------5---5-|-4--4-4--4-|-4--4-3--3---|
|-----------|-----------|-0--0-0--0-|-0--0---0---0-|-----------|---------1---|
|-3--3-3--3-|-3--3-3--3-|-----------|--------------|-6--6-6--6-|-6--6-6--1---|
|-1--1-1--1-|-2--2-2--2-|-4--4-4--4-|-4--4---4---4-|-4--4-4--4-|-5--5-6------|


                                         Q=89                    Q=100
|-4----4----|------4-2-1-2-|-4----4----|-----------------------|-4----4----|
|-4--4-4--4-|-4--4---4---4-|-3--3-3--3-|-3-/5-/7-/9-/10-/12b14-|-4--4-4--4-|
|-----------|--------------|-----------|-----------------------|-----------|
|-3--3-3--3-|-3--3---3---3-|-2--2-2--2-|-2---------------------|-3--3-3--3-|
|-2--2-2--2-|-2--2---2---2-|-2--2-2--2-|-2---------------------|-2--2-2--2-|
|-----------|--------------|-----------|-----------------------|-----------|


|------4-2-1-2-|-4----4----|---------------------|
|-4--4---4---4-|-3--3-3--3-|-3-/5-/7-9-/10-12b14-|
|--------------|-----------|---------------------|
|-3--3---3---3-|-2--2-2--2-|-2-------------------|
|-2--2---2---2-|-2--2-2--2-|-2-------------------|
|--------------|-----------|---------------------|


                    Q=89
|-8--10-12b14-----|-----10b12-12b14r=========|
|-6------------10-|-10--15----15\---13-------|
|--------------10-|-10-----------------14----|
|-7------------10-|-10--------------------15-|
|-----------------|--------------------------|
|-8---------------|--------------------------|


  Q=100
|-----------|------------|-3---5--7--0-|
|-5----5----|------4-5-7-|----10-12--5-|
|-5--5-5--5-|-5--5-5---5-|-5---------5-|
|-4--4-4--4-|-4--4-4---4-|-2---------5-|
|-0--0-0--0-|-0--0-0---0-|-------------|
|-----------|------------|-3-----------|


  Q=60                Q=6Q=Q=69   Q=60 Q=55
|-0--10s12----------|-----------|-------------|
|-5-----15-13-------|-0----0----|-------------|
|-5-----------14----|-2--2-2--2-|-2--2-2--2---|
|-5--------------16-|-1--1-1--1-|-1--1-1--1---|
|-------------------|-----------|-------------|
|-------------------|-2--2-2--2-|-1--1-1--1---|


  Q=100
|-3----3----|------3-2-0-2-|-----------|--------------|-----------|
|-0----0----|------8-0-5-0-|-3--0-3--0-|------5-------|-----------|
|----4----4-|-4--4---------|-4--0-4--0-|-0--0---7-5-7-|-4----4----|
|-2--2-2--2-|-2--2---2---2-|-5--2-5--2-|-2--2---5---5-|-4--4-4--4-|
|-----------|--------------|-7----7----|--------7---7-|-5--5-5--5-|
|-0---------|--------------|-----------|--------------|-----------|


|--------------|-----------|-----------|-8----8----|------8-7-5-7-|
|--------------|-----------|-----------|-----------|------------5-|
|------4-2-0-2-|-----------|-----------|-9--9-9--9-|-9--9---9-----|
|-2--2---2---2-|-4----4----|-----------|-7--7-7--7-|-7--7---7---7-|
|-3--3---3---3-|-6--6-6--6-|-6--6-6--6-|-----------|--------------|
|--------------|-7--7-7--7-|-7--7-7--7-|-0---------|--------------|


|-3----3----|-----------|-----------|----0-------|-----------|-----------|
|-5--5-5--5-|-5--5-5--5-|-5----5----|------3-1-3-|-0----0----|-----------|
|-5--5-5--5-|-5--5-5--5-|-4--4-4--4-|-2----2---2-|-1--1-1--1-|------2----|
|-----------|-----------|-----------|------------|-----------|-3--3-3--3-|
|-----------|-----------|-----------|-2----2---2-|-2--2-2--2-|-3--3-3--3-|
|-5--5-5--5-|-5--5-5--5-|-3--3-3--3-|-1----1---1-|-0--0-0--0-|-0--0-0--0-|


                                                                Q=89Q=85
|-----------|-3--(3)--1---|-0----0----|-----1--/3-|-----------|---------------|
|-----------|-4--(4)------|-----------|-4---------|-5----5----|------6---/8---|
|-0----0----|-2--(2)------|-1--1-1--1-|-2---------|-4--4-4--4-|-8---10--/12---|
|-2--2-2--2-|-------------|-----------|-----------|-6--6-6--6-|-7-------------|
|-2--2-2--2-|-3--(3)------|-----------|-3---------|-----------|---------------|
|-0--0-0--0-|-------------|-0--0-0--0-|-----------|-0--0-0--0-|-8-------------|


  Q=109     Q=100    Q=80
|---------|-0------|-0----*|
|---------|-0------|-0----*|
|--9------|-1------|-1----*|
|---------|-2------|-2----*|
|-11------|--------|------*|
|--0------|-0------|-0----*|



     
Добавлено: 25.07.2013
Другие материалы по этой песне:
  • Аккорды и текст

Страница создана 25.07.2013
http://primanota.ru/edvard-grieg/melody-chords.htm
Привет, Гость.
Предлагаем пройти революционный курс по гитаре.
Подарок от PrimaNota.Ru, забирай!