PrimaNota.ru - самый крупный в мире бесплатный архив песенных текстов, аккордов, табулатур и нот


Editors - Racing Rats Live - таба, видео

Регистрация Запомнить меня
Войти через:  Facebook Google Twitter Vk Yandex Mail.ru

Editors - Racing Rats Live - таба, видео

Печатать
Просмотров: 113
-------------------------------------------------------------------------------
                             Editors - Racing Rats (Live)
-------------------------------------------------------------------------------
Hey, this tab is based on their Sziget 2013 performance :)

Solo guitar

First verse solo (2x)

e|------------------------------------------------------------------------------|
B|------------------------------------------------------------------------------|
G|--11-11-11-11-9------------------------------7-7-7-9--------------------------|
D|----------------9------------------------------------9-9-9-9-9----------------|
A|------------------10-7-7-7-7-9-9-9-10-10-10--------------------9-9-9-10-10-10-|
E|------------------------------------------------------------------------------|

Pre-chorus 

e|--------------------------|
B|-17-17-17-17-17-17-17-17--|
G|--------------------------|
D|--------------------------|
A|--------------------------|
E|--------------------------|

Chorus
                                                  "if a plane were to fall from the sky"

e|-12-12-12-12-12-12-12-12-12-12-12-12-12-12-12-12--12-10-12-10-12-10-12-10-12-10-12-|
B|-----------------------------------------------------------------------------------|
G|-----------------------------------------------------------------------------------|
D|-----------------------------------------------------------------------------------|
A|-----------------------------------------------------------------------------------|
E|-----------------------------------------------------------------------------------|

                         "how big a hole  would  it  leave  in the surface of the earth?  
e|----------------------------------12-10-12-10-12-10-12-10-12-10--17.--|
B|-5-5-5-5-5-5-5-5-5-5-5-5-5-5-5-5--------------------------------------|   17. = tremolo picking
G|----------------------------------------------------------------------|    
D|----------------------------------------------------------------------|
A|----------------------------------------------------------------------|
E|----------------------------------------------------------------------|

Repeat 2x the first solo

e|------------------------------------------------------------------------------|
B|------------------------------------------------------------------------------|
G|--11-11-11-11-9------------------------------7-7-7-9--------------------------|
D|----------------9------------------------------------9-9-9-9-9----------------|
A|------------------10-7-7-7-7-9-9-9-10-10-10--------------------9-9-9-10-10-10-|
E|------------------------------------------------------------------------------|

Then,

  "I push my hand up to the sky..."
e|----------------------------------------------------------------------------------------------------------|
B|-12-12-12-12-----------------------12-12-12-12------------------------12-12-12-12-------------------------|
G|-------------12--------------------------------12---------------------------------12----------------------|
D|----------------14--12-12-12-12\9-9----------------14--12-12-12-12\9-9---------------14--12-12-12-12\9-9--|
A|----------------------------------------------------------------------------------------------------------|
E|----------------------------------------------------------------------------------------------------------|

e|---------------------------------------|
B|-12-12-12-12---------------------------|
G|-------------12-----11-11-11-11-12-12--|
D|----------------14---------------------|
A|---------------------------------------|
E|---------------------------------------|

Chorus
                                                  "if a plane were to fall from the sky"

e|-12-12-12-12-12-12-12-12-12-12-12-12-12-12-12-12--12-10-12-10-12-10-12-10-12-10-12-|
B|-----------------------------------------------------------------------------------|
G|-----------------------------------------------------------------------------------|
D|-----------------------------------------------------------------------------------|
A|-----------------------------------------------------------------------------------|
E|-----------------------------------------------------------------------------------|

                         "how big a hole  would  it  leave  in the surface of the earth?  
e|----------------------------------12-10-12-10-12-10-12-10-12-10--17.--|
B|-5-5-5-5-5-5-5-5-5-5-5-5-5-5-5-5--------------------------------------|   17. = tremolo picking
G|----------------------------------------------------------------------|    
D|----------------------------------------------------------------------|
A|----------------------------------------------------------------------|
E|----------------------------------------------------------------------|

  "Come on now..." (only tremolo picking in this part) OR       (ALTERNATE VERSION)
e|-------------12.-10.---------------------------------|-10.-7.-8.-12.-10.-7.-8.-7.--|    You can also   
B|-15.-12.-13.---------12.-13.-12.---------------------|-----------------------------|    mix/alternate both
G|-----------------------------------------------------|-----------------------------|     or whatever.
D|-----------------------------------------------------|-----------------------------|
A|-----------------------------------------------------|-----------------------------|    PLAY IT 2X
E|-----------------------------------------------------|-----------------------------|

Repeat 4x the first solo

e|------------------------------------------------------------------------------|
B|------------------------------------------------------------------------------|
G|--11-11-11-11-9------------------------------7-7-7-9--------------------------|
D|----------------9------------------------------------9-9-9-9-9----------------|
A|------------------10-7-7-7-7-9-9-9-10-10-10--------------------9-9-9-10-10-10-|
E|------------------------------------------------------------------------------|


Chorus
                                                  "if a plane were to fall from the sky"

e|-12-12-12-12-12-12-12-12-12-12-12-12-12-12-12-12--12-10-12-10-12-10-12-10-12-10-12-|
B|-----------------------------------------------------------------------------------|
G|-----------------------------------------------------------------------------------|
D|-----------------------------------------------------------------------------------|
A|-----------------------------------------------------------------------------------|
E|-----------------------------------------------------------------------------------|

                         "how big a hole  would  it  leave?  
e|----------------------------------12-10-12-10-12-10-12-10-12-10-|
B|-5-5-5-5-5-5-5-5-5-5-5-5-5-5-5-5--------------------------------|  
G|----------------------------------------------------------------|    
D|----------------------------------------------------------------|
A|----------------------------------------------------------------|
E|----------------------------------------------------------------|

                                                  "if a plane were to fall from the sky"

e|-12-12-12-12-12-12-12-12-12-12-12-12-12-12-12-12--12-10-12-10-12-10-12-10-12-10-12-|
B|-----------------------------------------------------------------------------------|
G|-----------------------------------------------------------------------------------|
D|-----------------------------------------------------------------------------------|
A|-----------------------------------------------------------------------------------|
E|-----------------------------------------------------------------------------------|

                         "how big a hole  would  it  leave  in the surface of the earth?  
e|----------------------------------12-10-12-10-12-10-12-10-12-10--17.--|
B|-5-5-5-5-5-5-5-5-5-5-5-5-5-5-5-5--------------------------------------|   17. = tremolo picking
G|----------------------------------------------------------------------|    
D|----------------------------------------------------------------------|
A|----------------------------------------------------------------------|
E|----------------------------------------------------------------------|

 "in the surface of the earth, the surface of the earth, the surface of the earth."
e|----17.---|
B|----------|   
G|----------|    
D|----------|
A|----------|
E|----------|


************************************

| \   slide down

************************************
Добавлено: 10.11.2015
Другие материалы по этой песне:
  • Аккорды и текст

Страница создана 10.11.2015
http://primanota.ru/editors/racing-rats-live-chords.htm
Привет, Гость.
Предлагаем пройти революционный курс по гитаре.
Подарок от PrimaNota.Ru, забирай!