PrimaNota.ru - самый крупный в мире бесплатный архив песенных текстов, аккордов, табулатур и нот


Editors - The Phone Book Live - таба, видео

Регистрация Запомнить меня
Войти через:  Facebook Google Twitter Vk Yandex Mail.ru

Editors - The Phone Book Live - таба, видео

Печатать
Просмотров: 69
-------------------------------------------------------------------------------
                             Editors - The Phone Book (Live)
-------------------------------------------------------------------------------

Tuning: Half-Step Down - Eb Ab Db Gb Bb eb
Relative to "capo 1" acoustic
Tab based on their Sziget 2013 performance

Solo guitar

  "What's that over my shoulder?..."
e|-16--17--19--21--16--17--12--10--16--17--19--21--16--17--12--10--9--9--10--10|
B|-----------------------------------------------------------------------------|
G|-----------------------------------------------------------------------------|
D|-----------------------------------------------------------------------------|
A|-----------------------------------------------------------------------------|
E|-----------------------------------------------------------------------------|

  "Staaaaaaaay wiiiiiiiiith meeeeeee...."
e|---------------------------------------------|
B|-2-3-2-0-----2-------------------------------|
G|---------2-4---3~----------------------------|   PLAY IT 8X
D|---------------------------------------------|  
A|---------------------------------------------|
E|---------------------------------------------|

"What's that over your shoulder?..."
e|-16--17--19--21--16--17--12--10--16--17--19--21--16--17--12--10--9--9--10--10|
B|-----------------------------------------------------------------------------|
G|-----------------------------------------------------------------------------|
D|-----------------------------------------------------------------------------|
A|-----------------------------------------------------------------------------|
E|-----------------------------------------------------------------------------|

 "Staaaaaaaay wiiiiiiiiith meeeeeee...."
e|---------------------------------------------|
B|-2-3-2-0-----2-------------------------------|
G|---------2-4---3~----------------------------|   PLAY IT 8X
D|---------------------------------------------|  
A|---------------------------------------------|
E|---------------------------------------------|

  "La lalaaaa lalaaaa..."
e|-------0----------9-----------12-----------9-----------0-----------9-------|
B|----10--10-----10---10-----10----10-----10---10-----10---10-----10---10----|
G|-11---------11----------11-----------11----------11----------11------------|
D|---------------------------------------------------------------------------|
A|---------------------------------------------------------------------------|
E|---------------------------------------------------------------------------|

  Then,
e|-------------------------------------------------------------------------------------|
B|------------------------------5---2~----------------------------------------0---0----|
G|-11b13r11-11-11b13r11-6~--2-4---4-----9b11r9--9b11r9--9b11r9--9b11r9--6~--2---4---6~-|
D|-------------------------------------------------------------------------------------|
A|-------------------------------------------------------------------------------------|
E|-------------------------------------------------------------------------------------|

e|--------------------------------------------|
B|------------------------------5---2~---3----|
G|-11b13r11-11-11b13r11-6~--2-4---4--------2~-|
D|--------------------------------------------|
A|--------------------------------------------|
E|--------------------------------------------|

  "It ends with a kiss..."
e|-------------------------------------------------------------------------------------------|
B|-------------------------------------------------------------------------------------------|
G|-2/4-4~--4/6-6~--6/9-9~-9-7-9-7-6-2~--2/4-4~--4/6-6~--6/9-9~-9-7-9-7-6-2~---2/4-4~--4/6-6~-|
D|-------------------------------------------------------------------------------------------|
A|-------------------------------------------------------------------------------------------|
E|-------------------------------------------------------------------------------------------|

 "Staaaaaaaay wiiiiiiiiith meeeeeee...."
e|---------------------------------------------|
B|-2-3-2-0-----2-------------------------------|
G|---------2-4---3~----------------------------|   PLAY IT 8X 
D|---------------------------------------------|  
A|---------------------------------------------|
E|---------------------------------------------|


 "Keeeeeeeeeeeeeeep wiiiiiiiiith meeeeeee...."
e|---------------------------------------------|
B|-2-3-2-0-----2-------------------------------|
G|---------2-4---3~----------------------------|   PLAY IT 8X
D|---------------------------------------------|  
A|---------------------------------------------|
E|---------------------------------------------|

 "La lalaaaa lalaaaa..."
e|-------0----------9-----------12-----------9-----------0-----------9-------|
B|----10--10-----10---10-----10----10-----10---10-----10---10-----10---10----|
G|-11---------11----------11-----------11----------11----------11------------|
D|---------------------------------------------------------------------------|
A|---------------------------------------------------------------------------|
E|---------------------------------------------------------------------------|


************************************

| /   slide up
| ~   vibrato
| b   Bend
| br  Bend release
| brb Bend release bend

************************************
Добавлено: 18.04.2016
Другие материалы по этой песне:
  • Аккорды и текст

Страница создана 18.04.2016
http://primanota.ru/editors/phone-book-live-chords.htm
Привет, Гость.
Предлагаем пройти революционный курс по гитаре.
Подарок от PrimaNota.Ru, забирай!