PrimaNota.ru - самый крупный в мире бесплатный архив песенных текстов, аккордов, табулатур и нот


Edge Of Sanity - After Afterlife - текст песни, таба, видео

Регистрация Запомнить меня
Войти через:  Facebook Google Twitter Vk Yandex Mail.ru

Edge Of Sanity - After Afterlife - текст песни, таба, видео

Печатать
Просмотров: 111
-------------------------------------------------------------------------------

  EDGE OF SANITY- After Afterlife- from Unorthodox album 1992 BLACK MARK
-------------------------------------------------------------------------------
Tabbed by:NihilView

E-mail:

Tuning: B standard 2,5 step down    BEADF#b

|---------------------------------------------------------------------------|
|---------------------------------------------------------------------------| INTRO
|---------------------------------------------------------------------------|
|----2--------------------5-------------2---------------5-------------------| 0:00-0:41
|----2--------------------6-------------2---------------6-------------------|  
-----0----0-----0-----------------------0---0----0------0-------------------|
        P.M------                        P.M.-----
               
          
|--------------------------------------I--------------------------------------|
|--------------------------------------I--------------------------------------| PREVERSE
|--------------------------------------I--------------------------------------|
|--------------------------------------I--------------------------------------| 0:42-1:07
|---5-55-5------5-8-5------------------I---5-55-5----5--8-5----------------4--|
|------------5----------5---6--3--5--1-I----------5-----------5---6--3--5------



------------------------I-----------------------------I----------------------------------|
|-----------------------I-----------------------------I----------------------------------| VERSE
|-----------------------I-----------------------------I-------------------9-tr10---------|
|----ˇ------------------I-----------------------------I----------------------------------| 1:08-1.37
|--5----8-7-5---7-------I----------------------3---2--I----3---2----3---2---------3--2-3-|
|------------------6--5-I----3--3-6-5--3--5----1---0--I----1---0----1---0---------1--0-1-|



|------------------------------------I----------------------------------------|
|------------------------------------I----------------------------------------|
|------------------------------------I----------------4---5--5-5-5-5----------| CHORUS
|---4----6---7------9--3---3-3-3-3---I----4--6---7----4---5- 5-5-5-5----------|
|---4----6---7------9--3---3-3-3-3---I----4--6---7----2---3--3-3-3-3----------| 1:38-2:02
|---2----4---5--sl--7--1---1-1-1-1---I----2--4---5----------------------------|
                          P.M.-----                       P.M.------
      
REPEAT PREVERSE  Riff  2:02- 2:23 
             

|----------------------------------------------------------------------------------|
|----------------------------------------------------------------------------------| BRIDGE
|----------------------------------------------------------------------------------|
|----------------1---------------------------------------1-------------------------| 2:03-3:01
|----------------1--------------------6-7----------------1----6----5-----5----4----|
|--0--0000--3p1------0--0000---5-h6-------0--0000--3p1-----0--4-sl-3--0--3-sl-2----|
   P.M----            P.M----             P.M.----        P.M.        P.M.



|---------------------------------------------------------------------------|
|---------------------------------------------------------------------------|
|---------------------------------------------------------------------------|
|-----------------------------------2-2--2-2--2-2--2-2-2-2-2----------------|
|----6---5----5----4----4----3--2---2-2--2-2--2-2--2-2-2-2-2----------------|
|--0-4sl-3-0--3-sl-2--0-2-sl-1--0---0-0--0-0--0-0--0-0-0-0-0----------------|
                                   P.M.----------------------


|---------------------------------------------------------------------------| SLOWER TEMPO 3:02-
|---------------------------------------------------------------------------|
|---------------------------------------------------------------------------|
|-------------------10--------8---------------------------------------------|
|--7-------10-------8---sl----6---------------------------------------------|
|--5-------8----------------------------------------------------------------|



|---------------------------------------------------------------------------|
|---------------------------------------------------------------------------| HARMONIC INTERLUDE
|--9--------------9------------10sl-12 10--9-p7h9-10-9-7--------------------|
|------10-9--7-------10-9-10------------------------------------------------|  3:24-
|---------------------------------------------------------------------------|
|---------------------------------------------------------------------------|




I---------------------------------------------------------------------------I
I---------------------------------------------------------------------------I
I--9---------------9--------------10h-12-10-9sl--7--------------------------I
I----10-9--7----------10-9--10----------------------------------------------I
I---------------------------------------------------------------------------I
I---------------------------------------------------------------------------I


REPEAT INTRO RIFF TIL END!



sl slide
P.M. palm muting
| h   hammer-on
| p   pull-off
| ~   vibrato
| +   harmonic
| x   Mute note
| b   Bend
| pb  Pre-bend
| br  Bend release
| pbr Pre-bend release
| brb Bend release bend

************************************
Добавлено: 17.06.2015
Другие материалы по этой песне:
  • Аккорды и текст

Страница создана 05.03.2012
http://primanota.ru/edge-of-sanity/after-afterlife-chords.htm
Привет, Гость.
Предлагаем пройти революционный курс по гитаре.
Подарок от PrimaNota.Ru, забирай!