PrimaNota.ru - самый крупный в мире бесплатный архив песенных текстов, аккордов, табулатур и нот


Edge Of Sanity - Hell Is Where The Heart Is - текст песни, таба, видео

Регистрация Запомнить меня
Войти через:  Facebook Google Twitter Vk Yandex Mail.ru

Edge Of Sanity - Hell Is Where The Heart Is - текст песни, таба, видео

Печатать
Просмотров: 167
Edge of Sanity - Hell is where the Heart is (Solo)

Version 1.1


Tabbed by Hypocrite (c) 2010/05/11

This is the solo part of 'Hell is where the Heart is' by Edge of Sanity.
Released 1997 on the album Infernal.

Hope you enjoy it!

-Hypocrite


I tabbed this song in C tuning, 2 whole steps down.
C F A# D# G c

/ Slide Up
\ Slide Down
h Hammer On
p Pull Off
b/r Bend/Release
~ Vibrato
s Staccato
. palm mute
ph pinched harmonic




Rhythm Guitar plays most of the time:

c |-------------|-------------|
G |-------------|-------------|
D#|-------------|-------------|
A#|-------------|-------------|
F |9-----7------|5------2-----|
C |7-----5------|3------0-----|


Lead Guitar

I tried to fit the bars to the rhythm above, well... i tried.

c |-------------------------------|-------------/12~----10-12|
G |14h17p14-----------------------|--------12s-12------------|
D#|--------14h16p16-11-12h14p12-11|--11s-11------------------|
A#|-------------------------------|11------------------------|
F |-------------------------------|--------------------------|
C |-------------------------------|--------------------------|
                                    .

c |12b14-12b14--12-10-9~---9h10p9-|--------------------------|
G |-------------------------------|12-10-----10--------------|
D#|-------------------------------|-------------12-11~-------|
A#|-------------------------------|--------------------------|
F |-------------------------------|--------------------------|
C |-------------------------------|--------------------------|


C |-------------------------------|--------------------------|
G |-------------------------------|--/12-14-15---------------|
D#|11---11-11-9-------------------|------------14------------|
A#|-------------12-11--11-12-11-9-|--------------------------|
F |-------------------------------|--------------------------|
C |-------------------------------|--------------------------|


C |-------------------------------|--------------------------|
G |-------------------------12s---|---12---------------------|
D#|11s-11---11b12r11--------------|--------------------------|
A#|-------------------------------|---------11b12r11~--------|
F |-------------------------------|--------------------------|
C |-------------------------------|--------------------------|


C |-------------------------------|--------------------------|
G |------------7------------------|--------------------------|
D#|-----7--9------9--7------------|--6---7---6---------------|
A#|-9---------------------9-------|-------------/9---9~------|
F |-------------------------------|--------------------------|
C |-------------------------------|--------------------------|


C |-------------------------------|--------------------------|
G |------------7------------------|---------/10----7~--------|
D#|-----7--9------9--7------------|--7---9-------------------|
A#|-9---------------------9-------|--------------------------|
F |-------------------------------|--------------------------|
C |-------------------------------|--------------------------|


C |-------------------------------|--------------------------|
G |------------7------------------|--------------------------|
D#|-----7--9------9--7------------|--6---7---6---------------|
A#|-9---------------------9-------|-------------/9---7~------|
F |-------------------------------|--------------------------|
C |-------------------------------|--------------------------|


C |-------------------------------|--------------------------|
G |------------7------------------|---------/10----7~--------|
D#|-----7--9------9--7------------|--7---9-------------------|
A#|-9---------------------9-------|--------------------------|
F |-------------------------------|--------------------------|
C |-------------------------------|--------------------------|


C |-14h17p14h17p14h17p14h17p14h17p|14-17-19b21-19b21-19h21p19p17-----|
G |-------------------------------|------------------------------19~-|
D#|-------------------------------|----------------------------------|
A#|-------------------------------|----------------------------------|
F |-------------------------------|----------------------------------|
C |-------------------------------|----------------------------------|

continued:

C |-------------------------------|
G |-17-19-19b22-19b22-19b22-19ph~-|
D#|-------------------------------|
A#|-------------------------------|
F |-------------------------------|
C |-------------------------------|


C |-------------------------------|--------------------------|
G |------------7------------------|--------------------------|
D#|-----7--9------9--7------------|--6---7---6---------------|
A#|-9---------------------9-------|-------------/9---7~------|
F |-------------------------------|--------------------------|
C |-------------------------------|--------------------------|


C |-------------------------------|--------------------------|
G |------------7------------------|---------/10----7~--------|
D#|-----7--9------9--7------------|--7---9-------------------|
A#|-9---------------------9-------|--------------------------|
F |-------------------------------|--------------------------|
C |-------------------------------|--------------------------|


C |-------------------------------|--------------------------|
G |------------7------------------|--------------------------|
D#|-----7--9------9--7------------|--6---7---6---------------|
A#|-9---------------------9-------|-------------/9---7~------|
F |-------------------------------|--------------------------|
C |-------------------------------|--------------------------|


C |-------------------------------|--------------------------|
G |------------7------------------|---------/10----7~--------|
D#|-----7--9------9--7------------|--7---9-------------------|
A#|-9---------------------9-------|--------------------------|
F |-------------------------------|--------------------------|
C |-------------------------------|--------------------------|
Добавлено: 22.04.2012
Вам также может быть интересно:
Другие материалы по этой песне:
  • Аккорды и текст

Страница создана 22.04.2012
http://primanota.ru/edge-of-sanity/hell-is-where-the-heart-is-chords.htm
Привет, Гость.
Предлагаем пройти революционный курс по гитаре.
Подарок от PrimaNota.Ru, забирай!