PrimaNota.ru - самый крупный в мире бесплатный архив песенных текстов, аккордов, табулатур и нот


Echo & The Bunnymen - Under The Milkyway - бас-таба, видео

Регистрация Запомнить меня
Войти через:  Facebook Google Twitter Vk Yandex Mail.ru

Echo & The Bunnymen - Under The Milkyway - бас-таба, видео

Печатать
Просмотров: 152
-------------------------------------------------------------------------------
			     Under The Milkyway - Echo And The Bunnymen
-------------------------------------------------------------------------------

Tabbed By : Moreno Elizondo josé Rodrigo (rocko872)
e-mail: rocko_872@hotmail.com

Tuning: G D A E

 Main riff:

G|-------------------------------------------------------------------------------|
D|-------------------------------------------------------------------------------|
A|-12-12--12-12-14------------------------------------------------------------10-|
E|-----------------14-14-14--14-14--14-13-13-13--13-13--13-12-12-12--10-11-12----|

 Chorus:

G|-----------------------------------------------------------|
D|-----------------------------------------------------------|
A|10-10--10-10--10-10--10-10-10------8-8--8-8--8-8--8-8-8----|
E|------------------------------12------------------------10-|

 Break:

G|----------------------------------------------------------|
D|----------------------------------------------------------|
A|-3--3--3--2-3-5-------------------------------------------|
E|----------------3--3--3-3-0-5-5--5-5-0-5--5-5--5-5-0------|

easy!!That's the whole song. it has been taken from the Donnie darko's soundtrack it's a 
from a song of "the church" band. you just have to figure out when to play each part.


| /  slide up
| \  slide down
| h  hammer-on
| p  pull-off
| ~  vibrato
| +  harmonic
| x  Mute note
===============================================================================
Добавлено: 25.06.2012
Другие материалы по этой песне:
  • Аккорды и текст

Страница создана 25.06.2012
http://primanota.ru/echo-and-the-bunnymen/under-the-milkyway-chords.htm
Привет, Гость.
Предлагаем пройти революционный курс по гитаре.
Подарок от PrimaNota.Ru, забирай!