PrimaNota.ru - самый крупный в мире бесплатный архив песенных текстов, аккордов, табулатур и нот


Echo & The Bunnymen - Back Of Love - текст песни, таба, бас-таба, видео

Регистрация Запомнить меня
Войти через:  Facebook Google Twitter Vk Yandex Mail.ru

Echo & The Bunnymen - Back Of Love - текст песни, таба, бас-таба, видео

Печатать
Просмотров: 140
The Back Of Love by Echo & the Bunnymen

What follows is the tab etc for the intro, verse & chorus parts. Use vigorous up and
down strokes the triads of the main riff, lifting your fingers off the fretboard to
get the staccato effect. Bash out D and Am7 chords for the chorus, keeping a constant
16th note movement going for the last 2 bar repeat phrase.


   D                               Am7                               D
E|-14--14--14--14--14--14--14--14-|-12--12--12--12--12--12--12--12-|-14-|
B|-15--15--15--15--15--15--15--15-|-13--13--13--13--13--13--13--13-|-15-|
G|-14--14--14--14--14--14--14--14-|-12--12--12--12--12--12--12--12-|-14-|
D|--------------------------------|--------------------------------|----|
A|--------------------------------|--------------------------------|----|
E|--------------------------------|--------------------------------|----|
                                                                 x4

                       Am7
E|-------------------|-12--12--12--12--12--12--12--12-|
B|-Rest for 2 bars---|-13--13--13--13--13--13--13--13-|
G|-------------------|--------------------------------|
D|-------------------|--------------------------------|
A|-------------------|--------------------------------|
E|-------------------|--------------------------------|
                          Fade in                   x2

   D                               Am7
E|-14--14--14--14--14--14--14--14-|-12--12--12--12--12--12--12--12-|
B|-15--15--15--15--15--15--15--15-|-13--13--13--13--13--13--13--13-|
G|-14--14--14--14--14--14--14--14-|-12--12--12--12--12--12--12--12-|
D|--------------------------------|--------------------------------|
A|--------------------------------|--------------------------------|
E|--------------------------------|--------------------------------|
                                                                 x2

   D                         Am7
E|-2--2--2--2--2--2--2--2--|-0--0--0--0--0--0--0--0---------|
B|-3--3--3--3--3--3--3--3--|-1--1--1--1--1--1--1--1---------|
G|-2--2--2--2--2--2--2--2--|-0--0--0--0--0--0--0--0---------|
D|-0--0--0--0--0--0--0--0--|-2--2--2--2--2--2--2--2---------|
A|-------------------------|-0--0--0--0--0--0--0--0---------|
E|-------------------------|--------------------------------|
                                                          x4

   D                       Am7
E|-2--2--2--2--2--2--2--2--0--0--0--0--0--0--0--0-|-------------------------|
B|-3--3--3--3--3--3--3--3--1--1--1--1--1--1--1--1-|-------------------------|
G|-2--2--2--2--2--2--2--2--0--0--0--0--0--0--0--0-|--7--7--7--7--7--7--7--7-|
D|-0--0--0--0--0--0--0--0--2--2--2--2--2--2--2--2-|-------------------------|
A|-------------------------0--0--0--0--0--0--0--0-|-------------------------|
E|------------------------------------------------|-------------------------|
                                      guitar 1  x2             guitar 2  x2
                                  continue similie             ditto

Listen to the Cd to get the hang of it. Enjoy...taff
Добавлено: 22.04.2012
Другие материалы по этой песне:

Страница создана 16.03.2012
http://primanota.ru/echo-and-the-bunnymen/back-of-love-chords.htm
Привет, Гость.
Предлагаем пройти революционный курс по гитаре.
Подарок от PrimaNota.Ru, забирай!