PrimaNota.ru - самый крупный в мире бесплатный архив песенных текстов, аккордов, табулатур и нот


Eazy-e - Real Motherfuckin Gs - таба, бас-таба, видео

Регистрация Запомнить меня
Войти через:  Facebook Google Twitter Vk Yandex Mail.ru

Eazy-e - Real Motherfuckin Gs - таба, бас-таба, видео

Печатать
Просмотров: 316
-------------------------------------------------------------------------------
                        Real Motherfuckin G's - Eazy-E
-------------------------------------------------------------------------------
Tabbed by: Bryan Reznicek

Tuning: Standard (E-B-G-D-A-E) high->low)

Key Legend:
(#) - Dead Note (x is also a dead note)
 s  - Slide
 h  - Hammer-on
 p  - Pull-off


Intro
|-----------|
|-----------|
|-------(7)-| Rake this part
|-----(7)---|
|---(5)-----|
|-(5)-------|

Rhythm*
|-----------|
|-----------|
|-----7~~-7-|
|-----7~~-7-|
|-x-x-------|
|-----------|
      ^   v


Chorus
|-----------------------------------|
|-0---6h8p6h8p6---8h10p8---10h12p10-| Synth part for guitar
|-----------------------------------|
|-----------------------------------|
|-----------------------------------|
|-----------------------------------|
 p.m.


Bass Part
|------------------------------|
|------------------------------| Bass part played simulatoneously
|------------------------------|    with above synth
|------------------------------|
|-2222-0-2-3s5-----------------|
|---------------0001-223-445---|


Pre-Chorus (~2:26)
|---------------------------------|
|-(0)---s10~~---------(0)---s10~~-| Played before the chorus
|---------------------------------|
|---------------------------------|
|---------------------------------|
|---------------------------------|


And this is my interpretation of the D.J. in the background.
You have to experiment with it but it's got a steady rhythm
to it. When I did this I held my fret hand over the second
fret, but not pushing down on the strings so I was playing
dead notes. I held my picking held at like a 45' angle and
just brushed my hand against the strings to make a more
percussive noise. It sounds very cool if you layer it with
other tracks.

|-xxxxxxxxxxxxxxxx-|
|-xxxxxxxxxxxxxxxx-|
|---xx--xx--xx--xx-|
|-xx--xx--xx--xx---|
|------------------|
|------------------|

*I play the RHYTHM section above during the verses even though
I don't believe it is played after the intro.

Enjoy!
Добавлено: 14.04.2012
Другие материалы по этой песне:
  • Аккорды и текст

Страница создана 14.04.2012
http://primanota.ru/eazy-e/real-motherfuckin-gs-chords.htm
Привет, Гость.
Предлагаем пройти революционный курс по гитаре.
Подарок от PrimaNota.Ru, забирай!