PrimaNota.ru - самый крупный в мире бесплатный архив песенных текстов, аккордов, табулатур и нот


Earshot - We Fall We Stand - аккорды и текст, таба, видео

Регистрация Запомнить меня
Войти через:  Facebook Google Twitter Vk Yandex Mail.ru

Earshot - We Fall We Stand - аккорды и текст, таба, видео

Печатать
Просмотров: 273
We Fall We Stand
Earshot
From/tabbed by: Josh Moore, Email:
Neo_Magus_87@yahoo.com

Artist: Earshot
Album: Letting Go
Song: We Fall, We Stand

This is a great song by a great band, and I'm
surprised there's not already any earshot tab on the
site. This is the updated version of the tab, complete
with the previously missing riff. Enjoy!
(BTW: This is the first tab I've made, so forgive me
for any sloppiness.)
Tuning is drop D
Effects: Lots of distortion

  Riff A
e|------------------------------|
B|------------------------------|
G|------------------------------|
D|------------------------------|
A|------------------------------|
D|-0-1---1-0--2b2-0-1---1-1-2-3-|

  Riff B
e|--------------------------------------------------------------------|
B|--------------------------------------------------------------------|
G|--------------------------------------------------------------------|
D|-0-1-1-1-1-0-2b2--0-1-1-1-1-0-3b3--0-1-1-1-1-0-2b2--0-1-1-1-1-1-2-3-|
A|-0-1-1-1-1-0-2b2--0-1-1-1-1-0-3b3--0-1-1-1-1-0-2b2--0-1-1-1-1-1-2-3-|
D|-0-1-1-1-1-0-2b2--0-1-1-1-1-0-3b3--0-1-1-1-1-0-2b2--0-1-1-1-1-1-2-3-|

  Riff C
e|----------------------------------------------------------|
B|----------------------------------------------------------|
G|----------------------------------------------------------|
D|-0-1--1---0-2--0-1--1---0-3--0-1--1---0-2--0-1--1---1-2-3-|
A|-0-1--1---0-2--0-1--1---0-3--0-1--1---0-2--0-1--1---1-2-3-|
D|-0-1--1---0-2--0-1--1---0-3--0-1--1---0-2--0-1--1---1-2-3-|
  |------------Palm
Mute-----------------------------------|

  Riff D
e|---------------------------------------------------|
B|---------------------------------------------------|
G|-----------------2-2-2-2-2-2-2-2-------------------|
D|-0-0-0-0-0-0-0-0-2-2-2-2-2-2-2-2-2--------1--------|
A|-0-0-0-0-0-0-0-0-0-0-0-0-0-0-0-0-2--------1--------|
D|-0-0-0-0-0-0-0-0-----------------2--------1--------|

  Riff E
e|---------------------------------------------------|
B|---------------------------------------------------|
G|---------------------------------------------------|
D|-5-5-5---3-3-3-2---2-2-2-2-0-0-0-5-5-5---3-3-3-2---|
A|-5-5-5---3-3-3-2---2-2-2-2-0-0-0-5-5-5---3-3-3-2---|
D|-5-5-5---3-3-3-2---2-2-2-2-0-0-0-5-5-5---3-3-3-2---|
  |-1st time only-|

e|---------------------------------------|
B|---------------------------------------|
G|---------------------------------------|
D|-2-2-2-2-0-0-0-0--0--0---0h1p0---------|
A|-2-2-2-2-0-0-0-0--0--0---0h1p0---------|
D|-2-2-2-2-0-0-0-0--0--0---0h1p0---------|
                |---Palm Mute---|
Riff A 1x
Riff B 2x
Riff C 4x
Riff D 4x
Riff A 1x
Riff C 4x
Riff D 4x
Riff E 6x

     
Добавлено: 24.07.2013
Вам также может быть интересно:
Другие материалы по этой песне:
  • Аккорды и текст

Страница создана 17.05.2012
http://primanota.ru/earshot/we-fall-we-stand-chords.htm
Привет, Гость.
Предлагаем пройти революционный курс по гитаре.
Подарок от PrimaNota.Ru, забирай!