PrimaNota.ru - самый крупный в мире бесплатный архив песенных текстов, аккордов, табулатур и нот


Eagles - Blue collar man - бас-таба, видео

Регистрация Запомнить меня
Войти через:  Facebook Google Twitter Vk Yandex Mail.ru

Eagles - Blue collar man - бас-таба, видео

Печатать
Просмотров: 162


From: MJPang91
Date: Fri, Aug 10, 2007

Standard Tuning: GDAE

Intro
|--7-7---10----7-7-7---12-10---
|--7-7---10----7-7-7---12-10---
|------------------------------
|------------------------------

|--7-7---10----7-7-7---12-10---------
|--7-7---10----7-7-7---12-10---------
|-----------------------------125---
|------------------------------------

|-----------------------------------
|-----------------------------------
|-5-5-5-5-5-5-5-5-5-5-5-5-5-5-5-5---
|-----------------------------------

|---------------------
|-------0-3-2-0---0---
|-0-1-3---------3-----
|---------------------

Verse 2x
|-------------------------------------------
|-------------------------------------------
|-5---------------------3---3-3---3-5---0-3-
|---5-6---3-5---3-5-6-----------------------

|-------------------------------------------
|-------------------------------------------
|-5---------------------3---3-3---3-5-3-1-0-
|---5-6---3-5---3-5-6-----------------------

Chorus#1
|------------------------------------
|------------------------0-----------
|-5-5-5-5-5-5-5-5----333---3-0-3-5---
|------------------------------------

|----------------------------------------
|--------------------------0-3-2-0---0---
|-5-5-5-5-5-5-5-5----0-1-3---------3-----
|----------------------------------------

Bridge#1
|---------------------
|-------0-3-2-0---0---
|-0-1-3---------3-----
|---------------------

Verse 1x

Chorus#1

Bridge#2
|-----------------------------------------
|-----------------------------------------
|-5-55-5-55-5-55-5-55-5-55-5-55-5-55-5-55-
|-----------------------------------------

|-----------------------------------------
|-----------------------------------------
|-3-33-3-33-3-33-3-33-3-33-3-33-3-33-3-33-
|-----------------------------------------

|-----------------------------------------
|-----------------------------------------
|-1-11-1-11-1-11-1-11-1-11-1-11-1-11-1-11-
|-----------------------------------------

|------------------------------------
|------------0-2-0-3-0-5-0-7-0-8-7---
|-5-55-5-55--------------------------
|------------------------------------

|-----------------------------------------
|-----------------------------------------
|-5-55-5-55-5-55-5-55-5-55-5-55-5-55-5-55-
|-----------------------------------------

|-----------------------------------------
|-----------------------------------------
|-3-33-3-33-3-33-3-33-3-33-3-33-3-33-3-33-
|-----------------------------------------

|-----------------------------------------
|-----------------------------------------
|-1-11-1-11-1-11-1-11-1-11-1-11-1-11-1-11-
|-----------------------------------------

|-------------------------
|-------------------------
|-5-55-5-55-5-55-5-55-5---
|-------------------------

Verse 2x

Chorus#2
|-----------------------------------------
|------------------------0----------------
|-5-5-5-5-5-5-5-5----333---3-0-3-5--0-3---
|-----------------------------------------

|----------------------------------------
|--------------------------0-3-2-0---3---
|-5-5-5-5-5-5-5-5----0-1-3---------3-----
|----------------------------------------

Bridge2

|-8-8-8-8-8-8-8-8-8-8-8-8-8-8-8-8---
|-----------------------------------
|-----------------------------------
|-----------------------------------

Chorus#3
|-----------------------------------------
|------------------------0----------------
|-5-5-5-5-5-5-5-5----333---3-0-3-5--0-3---
|-----------------------------------------

|--------------------------------------
|--------------------------0-3-2-0-----
|-5-5-5-5-5-5-5-5----0-1-3---------3---
|--------------------------------------

|------------------------------------
|-----0-3-2-0----------0-3-2-0---0---
|-1-3---------3----1-3---------3-----
|------------------------------------

Outro

|----------------------
|----------------------
|-5555-8---5555-10-8---  2x
|----------------------

|---------------------
|-------0-3-2-0---0---
|-0-1-3---------3-----
|---------------------

|---------------------------------
|---------0---3---2---0-------0---
|-1---3-------------------3-------
|---------------------------------

|--------------
|--------------
|------5-------
|--------------








Добавлено: 21.12.2013
Другие материалы по этой песне:
  • Аккорды и текст

Страница создана 21.12.2013
http://primanota.ru/eagles/blue-collar-man-chords.htm
Привет, Гость.
Предлагаем пройти революционный курс по гитаре.
Подарок от PrimaNota.Ru, забирай!