PrimaNota.ru - самый крупный в мире бесплатный архив песенных текстов, аккордов, табулатур и нот


Eagles - Wasted Time Reprise - таба, бас-таба, видео

Регистрация Запомнить меня
Войти через:  Facebook Google Twitter Vk Yandex Mail.ru

Eagles - Wasted Time Reprise - таба, бас-таба, видео

Печатать
Просмотров: 57
Уроки эстрадного вокала в Санкт-Петербурге
WASTED TIME (REPRISE)

As recorded by Eagles
(From the 1976 Album HOTEL CALIFORNIA)

Music by Don Henley & Glenn Frey
Arranged by Jim Ed Norman

Transcribed by Slowhand


Gtr I (E A D G B E) - 'Violin'
Gtr II (E A D G B E) - 'Violin'
Gtr III (E A D G B E) - 'Viola'
Gtr IV (E A D G B E) - 'Cello'


  Q=56
 4/4
  Gtr I (Violin arr. for Gtr.)
  W           H.               Q     H    Q   E  E    E  E  E  E  Q   Q
|----------|-20---------------19--|----------------|----------------------|
|----------|----------------------|-20-------------|----------------------|
|----------|----------------------|-------------11-|-12-11-----------11---|
|----------|----------------------|----------14----|-------14-12-14-------|
|----------|----------------------|----------------|----------------------|
|----------|----------------------|----------------|----------------------|
|
| Gtr II (Violin arr. for Gtr.)
| W           E   E  E  E  Q   Q     H    H           H           Q   Q
|----------|-20--19-17----17--19--|----------------|--7---------------8---|
|----------|-----------20---------|-20-------------|--7-----------8--10---|
|----------|----------------------|----------------|----------------------|
|----------|----------------------|----------------|----------------------|
|----------|----------------------|----------------|----------------------|
|----------|----------------------|----------------|----------------------|
|
| Gtr III (Viola arr. for Gtr.)
| W           H            H         H    H           Q     Q     Q   Q
|----------|----------------------|----------------|----------------------|
|----------|----------------------|----------------|--5-----------5---7---|
|----------|--5-------------------|----------------|--------7---------7---|
|----------|---------------7------|--5-------------|----------------------|
|----------|----------------------|----------------|----------------------|
|----------|----------------------|----------------|----------------------|


   H.        E E    E E  E   E  Q  Q     H       H            H       H
|----------------|--------------------|--------------------|---------------|
|----------------|--------------------|--------------------|---------------|
|--------------9-|-10-9------------9--|-10-------9---------|----------9----|
|-12--------12---|------12--10-12-----|--------------------|-12------------|
|----------------|--------------------|--------------------|---------------|
|----------------|--------------------|--------------------|---------------|
|
|  H     H          E E +Q      Q  Q     H       H            H       H
|----------------|--------------------|--5-------3---------|--1-------3----|
|-10-------------|--------------3--5--|--------------------|---------------|
|----------------|----9-(9)-----5-----|--------------------|---------------|
|----------------|--------------------|--------------------|---------------|
|----------------|--------------------|--------------------|---------------|
|----------------|--------------------|--------------------|---------------|
|
|  H.        Q      Q    Q      H        E E E E S S E E E    E E E E H
|----------------|--------------------|--------------------|---------------|
|--7-------------|--------------------|----------5---------|----------5----|
|--7-------------|--------------------|----5-5-7---7-5-5---|----5-5-7------|
|----------------|--------------7-----|--7---------------5-|--7------------|
|----------------|-------8------------|--------------------|---------------|
|----------------|--------------------|--------------------|---------------|


   H     Q   E  E   E   E E E +H         H          Q   S S S S
|-----------------|-------------------|-----------------------7-|
|-----------------|-------------------|-10----------9-----5-8---|
|-10-----9--------|-9--10-9-7-(7)-----|-----------------7-------|
|-----------10-12-|-------------------|-------------------------|
|-----------------|-------------------|-------------------------|
|-----------------|-------------------|-------------------------|
|
|  H.        E  E   Q.      E +Q   Q     E E    E E E E E   E
|--8---------8----|-8-------8-(8)-----|--8-8----8-8-7-7-7---7---|
|-----------------|-------------------|-------------------------|
|-----------------|-------------------|-------------------------|
|-----------------|-------------------|-------------------------|
|-----------------|-------------------|-------------------------|
|-----------------|-------------------|-------------------------|
|
|  H     H          Q.      E +Q   Q     E S S  E E Q   Q
|--5--------------|-5-------5-(5)-----|-------------------------|
|--------8--------|-6-------6-(6)-----|-----------------9-------|
|-----------------|-------------------|-----------9-7-----------|
|-----------------|-------------------|----7-9-10---------------|
|-----------------|-------------------|-------------------------|
|-----------------|-------------------|-------------------------|


   E S S  S S S S  Q           E E    H.          Q    H    H
|--8-7-5-----------------------5-7-|--8-----------7--|--------------|
|---------8-5----------------------|-----------------|-8------------|
|-------------7-5--7---------------|-----------------|--------------|
|----------------------------------|-----------------|--------------|
|----------------------------------|-----------------|--------------|
|----------------------------------|-----------------|--------------|
|
|  E E    E   E    S  S  S  S  Q      E  E E E Q  Q    H    Q  E E
|--8-8----8---8---10-10-10-10-10---|--8--7-5---5--7--|-7------------|
|----------------------------------|---------8-------|-----------5--|
|----------------------------------|-----------------|---------7----|
|----------------------------------|-----------------|--------------|
|----------------------------------|-----------------|--------------|
|----------------------------------|-----------------|--------------|
|
|  Q      Q        S  S  S  S  Q      W                H    H
|----------------------------------|-----------------|--------------|
|-10-----10------------------------|-----------------|--------------|
|-----------------11-11-11-11-11---|-----------------|-9------------|
|----------------------------------|-10--------------|-9------------|
|----------------------------------|-12--------------|--------------|
|----------------------------------|-----------------|--------------|


              |--------------12----------------|
  H       Q   S  S  S  S  S  S  S  S  S  S  S  S
|------------------------------------------------|
|------------------------------------------------|
|---------------------------------------12-14-16-|
|------------------------------12-14-15----------|
|---------------------12-14-15-------------------|
|------------12-13-15----------------------------|
|
| E E E E Q   Q
|------------------------------------------------|
|-6-5-3-1-3---5----------------------------------|
|------------------------------------------------|
|------------------------------------------------|
|------------------------------------------------|
|------------------------------------------------|
|
| E E E E Q   Q
|------------------------------------------------|
|------------------------------------------------|
|------------------------------------------------|
|-7-5-3-2-3---5----------------------------------|
|------------------------------------------------|
|------------------------------------------------|


                              Q=52   Q=46  Q=34
   W            +W            E E  E E  Q  Q
|------------|--------------|-8-7--5----5--7----|
|-13---------|-(13)---------|--------8----------|
|------------|--------------|-------------------|
|------------|--------------|-------------------|
|------------|--------------|-------------------|
|------------|--------------|-------------------|
|
|  H    H        H     H      Q    Q    H
|--8----8----|---8-----8----|-8-----------------|
|--8---------|---9----------|-8---10---10-------|
|------------|--------------|------9---10-------|
|------------|--------------|-------------------|
|------------|--------------|-------------------|
|------------|--------------|-------------------|
|
|  W             H     H      Q    Q    H
|------------|--------------|-------------------|
|--5---------|---4-----6----|-5-----------------|
|--5---------|---5-----7----|-5----5----5-------|
|------------|--------------|------7----7-------|
|------------|--------------|-------------------|
|------------|--------------|-------------------|


  Q=39
   W           +E  E Q  H
|-----------|----------------*|
|--8--------|--(8)-----------*|
|-----------|----------------*|
|-----------|----------------*|
|-----------|----------------*|
|-----------|----------------*|
|
|  W           +E  E Q  H
|-----------|----------------*|
|-12--------|-(12)-----------*|
|-12--------|-(12)-----------*|
|-----------|----------------*|
|-----------|----------------*|
|-----------|----------------*|
|
|  W           +E  E Q  H
|-----------|----------------*|
|--5--------|--(5)-----------*|
|--4--------|--(4)-----------*|
|-----------|----------------*|
|-----------|----------------*|
|-----------|----------------*|


Duration Legend
---------------
W - whole; H - half; Q - quarter; E - 8th; S - 16th; T - 32nd; X - 64th; a - acciaccatura
+ - note tied to previous; . - note dotted; .. - note double dotted
Uncapitalized letters represent notes that are staccato (1/2 duration)
Irregular groupings are notated above the duration line
Duration letters will always appear directly above the note/fret number it represents the
duration for.  Duration letters with no fret number below them represent rests.  Multi-
bar rests are notated in the form Wxn, where n is the number of bars to rest for.  Low
melody durations appear below the staff

Tablature Legend
----------------
 h   - hammer-on
 p   - pull-off
 b   - bend
 pb  - pre-bend
 r   - bend release (if no number after the r, then release immediately)
 /\  - slide into or out of (from/to "nowhere")
 s   - legato slide
 S   - shift slide
  - natural harmonic
[n]  - artificial harmonic
n(n) - tapped harmonic
 ~   - vibrato
 tr  - trill
 T   - tap
 TP  - trem. picking
 PM  - palm muting
\n/  - tremolo bar dip; n = amount to dip
 \n  - tremolo bar down
 n/  - tremolo bar up
/n\  - tremolo bar inverted dip
 =   - hold bend; also acts as connecting device for hammers/pulls
 <>  - volume swell (louder/softer)
 x   - on rhythm slash represents muted slash
 o   - on rhythm slash represents single note slash

Misc Legend
-----------
 |  - bar
||  - double bar
||o - repeat start
o|| - repeat end
*|  - double bar (ending)
 :  - bar (freetime)
 $  - Segno
 &  - Coda
Tempo markers -  = BPM(8/16=s8/s16), where s8 = swing 8ths, s16 = swing 16ths
Добавлено: 10.04.2016
Другие материалы по этой песне:

Страница создана 21.03.2016
http://primanota.ru/eagles/wasted-time-reprise-chords.htm
Привет, Гость.
Предлагаем пройти революционный курс по гитаре.
Подарок от PrimaNota.Ru, забирай!