PrimaNota.ru - самый крупный в мире бесплатный архив песенных текстов, аккордов, табулатур и нот


Duran Duran - Breath After Breath - текст песни, бас-таба, видео

Регистрация Запомнить меня
Войти через:  Facebook Google Twitter Vk Yandex Mail.ru

Duran Duran - Breath After Breath - текст песни, бас-таба, видео

Печатать
Просмотров: 166
BAND NAME: DURAN DURAN
SONG: BREATH AFTER BREATH
ALBUM: DURAN DURAN (WEDDING ALBUM)
TABBED BY: MADNESSBASS
33ryan@fsmail.net

opening: A#/A/C/B/A#/A/C/G/A#/A/C/B/A#/A/C

main riff:
-------------|---------------|-------------|------------------|
-------------|---------------|-------------|------------------|
-4-----------|-4---------2-5-|-4-----------|-5--5-7--7-5-7-5--|
----5-5--3-5-|----5-0--3-----|----5-5--3-5-|------------------|

main riff ending:
-------------|---------------|-------------|----------|
-------------|---------------|-------------|----------|
-4-----------|-4---------2-5-|-4---------3-|-2--------|
----5-5--3-5-|----5-0--3-----|----5-5--3---|----------|

chorus:
-----------|-----------|-----------|-----------|-----------|----------|-----|
-----------|-----------|-----------|-----------|-----------|----------|-2---|
5---5----5-|-7---7---6-|-5---5---5-|-7---7-----|-----------|-3---3--3-|-----|
-----------|-----------|-----------|---------5-|-7---7---7-|----------|-----|

riff 2:
-----------|-----------|-------------|-----------|-----------|-----------|
-----------|-----------|---------2---|-----------|-----------|-----------|
-3---3---3-|-2---2---2-|-3---3-------|-5---5---5-|-7---7---6-|-5---5---5-|
-----------|-----------|-------------|-----------|-----------|-----------|

-----------|------------|-----------|-----------|-------|-----------|
-----------|------------|-----------|-----------|-3---3-|-2---------|
-5---5---5-|-7---7------|-----------|-3---3---3-|-------|-----------|
-----------|---------5--|-7---7---7-|-----------|-------|-----------|

finale:
---------|---------|---------|---------|
---------|---------|---------|---------|
-1---1---|-0---0---|-3---3---|-2---2---|
---------|---------|---------|---------|

main riff 6 times followed by ending
chorus
main riff 4 times followed by ending
first 5 bars of chorus
riff 2 then repeat finale to finish.
Добавлено: 23.03.2012
Другие материалы по этой песне:
  • Аккорды и текст

Страница создана 23.03.2012
http://primanota.ru/duran-duran/breath-after-breath-chords.htm
Привет, Гость.
Предлагаем пройти революционный курс по гитаре.
Подарок от PrimaNota.Ru, забирай!