PrimaNota.ru - самый крупный в мире бесплатный архив песенных текстов, аккордов, табулатур и нот


Duran Duran - Careless Memories - текст песни, бас-таба, видео

Регистрация Запомнить меня
Войти через:  Facebook Google Twitter Vk Yandex Mail.ru

Duran Duran - Careless Memories - текст песни, бас-таба, видео

Печатать
Просмотров: 166
Song: Careless Memories
Artist: Duran Duran

/ = slide up
( ) = cd timer


(0:07)
G:-------------------------------------------------------------|
D:-------------------------------------------------------------|
A:--7-7--5-7-7--5-7-7--0-3-3-5-5--7-7--5-7-7--5-7-7--0-3-3-5-5-|
E:-------------------------------------------------------------|


G:-------------------------------------------------------5---7-|
D:-------5------5----------------------------------------------|
A:--7-7----7-7----7-7--0-3-3-5-5--7-7--5-7-7--5-7-7--0-3---5---|
E:-------------------------------------------------------------|


So soon...
G:-------------------------------------------------------------|
D:-------------------------------------------------------------|
A:--7-7--5-7-7--5-7-7--0-3-3-5-5--7-7--5-7-7--5-7-7--0-3-3-5-5-|
E:-------------------------------------------------------------|


G:-------------------------------------------------------------|
D:-------------------------------------5------5----------------|
A:--7-7--5-7-7--5-7-7--0-3-3-5-5--7-7----7-7----7-7--0-3-3-5-5-|
E:-------------------------------------------------------------|


G:-------------------------------------------------------------|
D:-------------------------------------------------------------|
A:--7-7--5-7-7--5-7-7-0-0-1-1-2-2------------------------------|
E:-------------------------------------------------------------|

gunsmoke... Drifting
G:-------------------------------------------------------------|
D:-----------------------------------------------7-/-----------|
A:-3-3--0-3-3--0-3-3--0-3-3--0-5-5--0-5-5--0-5---5-/-----------|
E:-------------------------------------------------------------|

in a room...
G:-------------------------------------------------------------|
D:-------------------------------------------------------------|
A:--7-7--5-7-7--5-7-7--0-3-3-5-5--7-7--5-7-7--5-7-7--0-3-3-5-5-|
E:-------------------------------------------------------------|

discern... whisper...
G:-------------------------------------------------------------|
D:-----------------------------------------------7-/-----------|
A:-3-3--0-3-3--0-3-3--0-3-3--0-5-5--0-5-5--0-5---5-/-----------|
E:-------------------------------------------------------------|

With a careless memory...
G:-------------------------------------------------------------|
D:-------------------------------------------------------------|
A:--7-7--5-7-7--5-7-7--0-3-3-5-5--7-7--5-7-7--5-7-7--0-3-3-5-5-|
E:-------------------------------------------------------------|

G:--------------------------------------------------------------|
D:--------------------------------------------------------------|
A:--7-7--5-7-7--5-7-7--0-3-3-5-5--7-7--5-7-7--5-7-7-7-7-7-7-7-7-|
E:--------------------------------------------------------------|

On the table...
G:-------------------------------------------------------------|
D:-------------------------------------5------5----------------|
A:--7-7--5-7-7--5-7-7--0-3-3-5-5--7-7----7-7----7-7--0-3-3-5-5-|
E:-------------------------------------------------------------|

worlds break...
G:-------------------------------------------------------------|
D:-------------------------------------------------------------|
A:--7-7--5-7-7--5-7-7--0-3-3-5-5--7-7--5-7-7--5-7-7--0-3-3-5-5-|
E:-------------------------------------------------------------|

it's not as though... mattered
G:--------------------------------------------------------------|
D:-------5------5-----------------------------------------------|
A:--7-7----7-7----7-7--0-3-3-5-5---7-7--5-7-7--5-7-7--0-3-3-5-5-|
E:--------------------------------------------------------------|

close how could....
G:--------------------------------------------------------------|
D:-------5------5-----------------------------------------------|
A:--7-7----7-7----7-7--0-3-3-5-5---7-7--5-7-7--5-7-7--0-3-3-5-5-|
E:--------------------------------------------------------------|


G:-------------------------------------------------------------|
D:-------------------------------------------------------------|
A:--7-7--5-7-7--5-7-7--5-5-4-4-5-5-----------------------------|
E:-------------------------------------------------------------|

gunsmoke...
G:-------------------------------------------------------------|
D:-----------------------------------------------7-/-----------|
A:-3-3--0-3-3--0-3-3--0-3-3--0-5-5--0-5-5--0-5---5-/-----------|
E:-------------------------------------------------------------|


G:--------------------------------------------------------------|
D:--------------------------------------------------------------|
A:--7-7--5-7-7--5-7-7--0-3-3-5-5--7-7--5-7-7--5-7-7-5-5-4-4-5-5-|
E:--------------------------------------------------------------|

G:------------------------------------------------------------|
D:-----------------------------------------------7-/----------|
A:-3-3--0-3-3--0-3-3--0-3-3--0-5-5--0-5-5--0-5---5-/----------|
E:------------------------------------------------------------|

(2:12)
G:-------------------------------------------------------------|
D:-------------------------------------------------------------|
A:--7-7--5-7-7--5-7-7--0-3-3-5-5--7-7--5-7-7--5-7-7--0-3-3-5-5-|
E:-------------------------------------------------------------|


G:---------------------------------------------------------------|
D:---------------------------------------------------------------|
A:--7-7--5-7-7--5-7-7--0-3-3-5-5-7-7-7-7-7-7-7-7-7-7-7-0-3-3-5-5-|
E:---------------------------------------------------------------|


G:-------------------------------------------------------------|
D:-------------------------------------------------------------|
A:--7-7--5-7-7--5-7-7--0-3-3-5-5--7-7--5-7-7--5-7-7--0-3-3-5-5-|
E:-------------------------------------------------------------|

But the whole place...
G:-------------------------------------------------------------|
D:-------------------------------------5------5----------------|
A:--7-7--5-7-7--5-7-7--0-3-3-5-5--7-7----7-7----7-7--0-3-3-5-5-|
E:-------------------------------------------------------------|

G:-------------------------------------------------------------|
D:-------------------------------------------------------------|
A:--7-7--5-7-7--5-7-7--0-3-3-5-5--7-7--5-7-7--5-7-7--0-3-3-5-5-|
E:-------------------------------------------------------------|


G:-------------------------------------------------------------|
D:-------------------------------------5------5----------------|
A:--7-7--5-7-7--5-7-7--0-3-3-5-5--7-7----7-7----7-7--0-3-3-5-5-|
E:-------------------------------------------------------------|


G:-------------------------------------------------------------|
D:-------------------------------------------------------------|
A:--7-7--5-7-7--5-7-7--5-5-4-4-5-5-----------------------------|
E:-------------------------------------------------------------|

G:-------------------------------------------------------------|
D:-----------------------------------------------7-/-----------|
A:-3-3--0-3-3--0-3-3--0-3-3--0-5-5--0-5-5--0-5---5-/-----------|
E:-------------------------------------------------------------|

With a careless memory...
G:-------------------------------------------------------------|
D:-------------------------------------5------5----------------|
A:--7-7--5-7-7--5-7-7--0-3-3-5-5--7-7----7-7----7-7--0-3-3-5-5-|
E:-------------------------------------------------------------|

G:-------------------------------------------------------------|
D:-------------------------------------------------------------|
A:--7-7--5-7-7--5-7-7--5-5-4-4-5-5-----------------------------|
E:-------------------------------------------------------------|

G:-------------------------------------------------------------|
D:-----------------------------------------------7-/-----------|
A:-3-3--0-3-3--0-3-3--0-3-3--0-5-5--0-5-5--0-5---5-/-----------|
E:-------------------------------------------------------------|
Добавлено: 01.04.2012
Другие материалы по этой песне:
  • Аккорды и текст

Страница создана 25.03.2012
http://primanota.ru/duran-duran/careless-memories-chords.htm
Привет, Гость.
Предлагаем пройти революционный курс по гитаре.
Подарок от PrimaNota.Ru, забирай!