PrimaNota.ru - самый крупный в мире бесплатный архив песенных текстов, аккордов, табулатур и нот


Друзья Гагарина - Каблуки - аккорды и текст, видео

Регистрация Запомнить меня
Войти через:  Facebook Google Twitter Vk Yandex Mail.ru

Друзья Гагарина - Каблуки - аккорды и текст, видео

Печатать
Просмотров: 533
Каблуки
Друзья Гагарина
e||-----------0--------|----------0---------|----------0---------|----------0-------
B||-------14---14----|-------14---14----|------------14------|------------14----
G||----13---------13-|----13---------13-|-------13------13-|-------13------13- 
D||-11----------------|-11----------------|----11--------------|----11------------
A||--------------------|---------------------|-12----------------|-12---------------
E||---------------------|--------------------|---------------------|------------------
e||----------0---------|----------0---------|----------0---------|------------------
B||-------14---14----|-------14---14----|------------14------|------------------
G||----13---------13-|----13---------13-|-------13------13-|------------------ 
D||-11----------------|-11----------------|----11--------------|------------------
A||--------------------|---------------------|-12-----------------|-12---------------
E||--------------------|---------------------|---------------------|------------------

- Ты спятил, Ноябрь?
- Разбрасывать листья довольно!
- Мне холодно... Слышишь, Ноябрь?

Впервые по тонкому льду я с тобою иду и боюсь оступиться. Боюсь провалиться. Представить боюсь, что мы встретимся так вот, однажды. 
И ты не узнаешь меня, и ты не признаешь меня... Ведь, любовь не случается дважды... 

------------

Мы стали как-будто взрослее и ближе друг к другу
Как-будто последнюю тянем минуту
Из всех безответственно брошенных в пропасть часов...

Не прикасайся ко мне ни словами, ни мыслями
Время не вылечит - мы слишком зависимы
От этих напротив зрачков.

Не было, нет, никогда и не будет
Двух одинаковых призрачных судеб
Разные наши ушли корабли, города...

Ну так брось меня, если получится.
Выстрели в зеркало, чтобы не мучиться
В сторону, чтоб не задели осколки мои, отойди.

На каблуках по разбитому сердцу,
На каблуках по разбитому сердцу,
На каблуках по разбитому сердцу пройди...
Добавлено: 13.11.2014
Другие материалы по этой песне:
  • Аккорды и текст

Страница создана 13.11.2014
http://primanota.ru/druzya-gagarina/kabluki-chords.htm
Привет, Гость.
Предлагаем пройти революционный курс по гитаре.
Подарок от PrimaNota.Ru, забирай!