PrimaNota.ru - самый крупный в мире бесплатный архив песенных текстов, аккордов, табулатур и нот


Dropkick Murphys - Vices And Virtues - текст песни, таба, видео

Регистрация Запомнить меня
Войти через:  Facebook Google Twitter Vk Yandex Mail.ru

Dropkick Murphys - Vices And Virtues - текст песни, таба, видео

Печатать
Просмотров: 148
Уроки эстрадного вокала в Санкт-Петербурге
Artist: Dropkick Murphys
Track: Vices and Virtues

Awesome song, tabbed by ear, listen to the song for any timings that aren't clear. May 
be totally correct, but it sounds right to me.....enjoy.


Intro:

Gtr 1:
|--------------------------------------------------------------------|
|--------------------------------------------------------------------|
|-8------------------------------------------------------------------|
|-8-8-3-333333333----------------------------------------------------|
|-6-8-3-333333333----repeat until singing starts---------------------|
|---6-1-111111111----------------------------------------------------|
      PM.........
Gtr2:
|--------------------------------------------------------------------|
|--------------------------------------------------------------------|
|-8\3/10-------------------------------------------------------------|
|-x\x/x--------------------------------------------------------------|
|-6\1/8--------let ring----------------------------------------------|
|--------------------------------------------------------------------|


''Now hear me...''
Gtr 1:
|----------------------------------------------------------------------|
|----------------------------------------------------------------------|
|----------------------------------------------------------------------|
|-8888888888888888-3333333333333333--8888888888888888-3333333333333333-|
|-8888888888888888-3333333333333333--8888888888888888-3333333333333333-|
|-6666666666666666-1111111111111111--6666666666666666-1111111111111111-|
PM................ ................  ................ ................
Gtr 2:
|----------------------------------------------------------------------|
|----------------------------------------------------------------------|
|---------8-\-7-\-5------------------10------8-\-7-\-5-----------------|
|---------x-\-x-\-x------------------x-------x-\-x-\-x-----------------|
|---------6-\-5-\-3------let ring----8-------6-\-5-\-3-----------------|
|----------------------------------------------------------------------|


''One died from the bottle..''

Gtr 1:
|----------------------------------------------------------------------|
|----------------------------------------------------------------------|
|----------------------------------------------------------------------|
|-8888888888888888-3333333333333333--8888888888888888-3333333333333333-|
|-8888888888888888-3333333333333333--8888888888888888-3333333333333333-|
|-6666666666666666-1111111111111111--6666666666666666-1111111111111111-|

Gtr 2:
|----------------------------------------------------------------------|
|-------------------------------------(tens)---------------------------|
|-10------8-\-7-\-55555555555555555--10101010-8-\-7-\-5555555555555555-|
|-x-------x-\-x-\-xxxxxxxxxxxxxxxxx--xxxxxxxx-x-\-x-\-xxxxxxxxxxxxxxxx-|
|-8-------6-\-5-\-33333333333333333--88888888-6-\-5-\-3333333333333333-|
|----------------------------------------------------------------------|

''And another died by the bullet...''

Gtr 1&2:
|----------------------------------------|
|----------------------------------------|
|-8-8-8-8-x-10-x-12-x-8-8-8-8-x-10-x-----|
|-8-8-8-8-x-10-x-12-x-8-8-8-8-x-10-x-8---|
|-6-6-6-6-x-8--x-10-x-6-6-6-6-x-8--x-8---|
|------------------------------------6---|
                                             Listen for stumming pattern
|----------------------------------------|
|----------------------------------------|
|-8-8-8-8-x-10-x-12-x-8-8-8-8-x-10101010-|
|-8-8-8-8-x-10-x-12-x-8-8-8-8-x-10101010-|
|-6-6-6-6-x-8--x-10-x-6-6-6-6-x-8-8-8-8--|
|----------------------------------------|


Gtr 1:           ''Whiskey, War...''
|----------------------------------------------------------------------|
|----------------------------------------------------------------------|
|----------------------------------------------------------------------|
|-8888888888888888-3333333333333333--8888888888888888-3333333333333333-|
|-8888888888888888-3333333333333333--8888888888888888-3333333333333333-|
|-6666666666666666-1111111111111111--6666666666666666-1111111111111111-|

Gtr 2:
|----------------------------------------------------------------------|
|-------------------------------------(tens)---------------------------|
|-10101010-8-\-7-\-5555555555555555--10101010-8-\-7-\-5555555555555555-|
|-xxxxxxxx-x-\-x-\-xxxxxxxxxxxxxxxx--xxxxxxxx-x-\-x-\-xxxxxxxxxxxxxxxx-|
|-88888888-6-\-5-\-3333333333333333--88888888-6-\-5-\-3333333333333333-|
|----------------------------------------------------------------------|

''The next one took his life..''
Gtr 1:
|----------------------------------------------------------------------|
|----------------------------------------------------------------------|
|----------------------------------------------------------------------|
|-8888888888888888-3333333333333333--8888888888888888-3333333333333333-|
|-8888888888888888-3333333333333333--8888888888888888-3333333333333333-|
|-6666666666666666-1111111111111111--6666666666666666-1111111111111111-|

Gtr 2:
|----------------------------------------------------------------------|
|-------------------------------------(tens)---------------------------|
|-10101010-8-\-7-\-5555555555555555--10101010-8-\-7-\-5555555555555555-|
|-xxxxxxxx-x-\-x-\-xxxxxxxxxxxxxxxx--xxxxxxxx-x-\-x-\-xxxxxxxxxxxxxxxx-|
|-88888888-6-\-5-\-3333333333333333--88888888-6-\-5-\-3333333333333333-|
|----------------------------------------------------------------------|


''And another son was shot again...''

Gtr 1&2:
|----------------------------------------|
|----------------------------------------|
|-8-8-8-8-x-10-x-12-x-8-8-8-8-x-10-x-----|
|-8-8-8-8-x-10-x-12-x-8-8-8-8-x-10-x-8---|
|-6-6-6-6-x-8--x-10-x-6-6-6-6-x-8--x-8---|
|------------------------------------6---|
                                             Listen for stumming pattern
|----------------------------------------|
|----------------------------------------|
|-8-8-8-8-x-10-x-12-x-8-8-8-8-x-10101010-|
|-8-8-8-8-x-10-x-12-x-8-8-8-8-x-10101010-|
|-6-6-6-6-x-8--x-10-x-6-6-6-6-x-8-8-8-8--|
|----------------------------------------|


''One for the Whiskey...''

Gtr 1:
|-------------------------|
|-------------------------|
|-8-----------------------|
|-8-8-3-333333333---------|
|-6-8-3-333333333----| ---|
|---6-1-111111111----| ---|
                        x3
Gtr2:                   |
|--------------------| ---|
|-------------------------|
|-8\3/101010101010--------|
|-x\x/x-x-x-x-x-x---------|
|-6\1/8-8-8-8-8-8---------|
|-------------------------|

finish on...                ...and
|--------------------|      |-----------------------|
|--------------------|      |-----------------------|
|--------------------|      |-10101010--------------|
|-3333---------------|      |-x-x-x-x---------------|
|-3333---------------|      |-8-8-8-8---------------|
|-1111---------------|      |-----------------------|

Gtr 1:           ''Whiskey, war...''
|---------------------------------------------------------------------------|
|---------------------------------------------------------------------------|
|---------------------------------------------------------------------------|
|-8888888888888888-3333333333333333--8888888888888888-3333333333333333------|
|-8888888888888888-3333333333333333--8888888888888888-3333333333333333-| ---|
|-6666666666666666-1111111111111111--6666666666666666-1111111111111111-| ---|
                                                                          x2
Gtr 2:                                                                    |
|----------------------------------------------------------------------| ---|
|-------------------------------------(tens)--------------------------------|
|-10101010-8-\-7-\-5555555555555555--10101010-8-\-7-\-5555555555555555------|
|-xxxxxxxx-x-\-x-\-xxxxxxxxxxxxxxxx--xxxxxxxx-x-\-x-\-xxxxxxxxxxxxxxxx------|
|-88888888-6-\-5-\-3333333333333333--88888888-6-\-5-\-3333333333333333------|
|---------------------------------------------------------------------------|

''One died from the Whiskey..''

Gtr 1&2:
|----------------------------------------|
|----------------------------------------|
|-8-8-8-8-x-10-x-12-x-8-8-8-8-x-10-x-----|
|-8-8-8-8-x-10-x-12-x-8-8-8-8-x-10-x-8---|
|-6-6-6-6-x-8--x-10-x-6-6-6-6-x-8--x-8---|
|------------------------------------6---|
                                             Listen for stumming pattern
|----------------------------------------|
|----------------------------------------|
|-8-8-8-8-x-10-x-12-x-8-8-8-8-x-10101010-|
|-8-8-8-8-x-10-x-12-x-8-8-8-8-x-10101010-|
|-6-6-6-6-x-8--x-10-x-6-6-6-6-x-8-8-8-8--|
|----------------------------------------|


Gtr 1:           ''Whiskey, war...''
|---------------------------------------------------------------------------|
|---------------------------------------------------------------------------|
|---------------------------------------------------------------------------|
|-8888888888888888-3333333333333333--8888888888888888-3333333333333333------|
|-8888888888888888-3333333333333333--8888888888888888-3333333333333333-| ---|
|-6666666666666666-1111111111111111--6666666666666666-1111111111111111-| ---|
                                                                          x2
Gtr 2:                                                                    |
|----------------------------------------------------------------------| ---|
|-------------------------------------(tens)--------------------------------|
|-10101010-8-\-7-\-5555555555555555--10101010-8-\-7-\-5555555555555555------|
|-xxxxxxxx-x-\-x-\-xxxxxxxxxxxxxxxx--xxxxxxxx-x-\-x-\-xxxxxxxxxxxxxxxx------|
|-88888888-6-\-5-\-3333333333333333--88888888-6-\-5-\-3333333333333333------|
|---------------------------------------------------------------------------|

Outro:

Gtr 1:
|-------------------------|
|-------------------------|
|-8-----------------------|
|-8-8-3-333333333---------|
|-6-8-3-333333333----| ---|
|---6-1-111111111----| ---|
                        x3
Gtr2:                   |
|--------------------| ---|
|-------------------------|
|-8\3/101010101010--------|
|-x\x/x-x-x-x-x-x---------|
|-6\1/8-8-8-8-8-8---------|
|-------------------------|

Ends on:   'Whiskey, War, Suicide and guns''
|---------------------------|
|---------------------------|
|---------------------------|
|-33333333-3-------------3--|
|-33333333-3----let ring-3--|
|-11111111-1-------------1--|


Any comments e-mail: jdsomers@hotmail.com
Cheers!
Добавлено: 08.04.2012
Другие материалы по этой песне:
  • Аккорды и текст

Страница создана 08.04.2012
http://primanota.ru/dropkick-murphys/vices-and-virtues-chords.htm
Привет, Гость.
Предлагаем пройти революционный курс по гитаре.
Подарок от PrimaNota.Ru, забирай!