PrimaNota.ru - самый крупный в мире бесплатный архив песенных текстов, аккордов, табулатур и нот


Dropkick Murphys - Which Side Are You On - текст песни, таба, бас-таба, видео

Регистрация Запомнить меня
Войти через:  Facebook Google Twitter Vk Yandex Mail.ru

Dropkick Murphys - Which Side Are You On - текст песни, таба, бас-таба, видео

Печатать
Просмотров: 158
Авторы музыки: [traditional]
Авторы текста: Florence Reece
Song:  Which side are you on
Album: Sing loud, Sing Proud
Band:  Dropkick Murphys
E-mail:Greenday_rhcp2002@yahoo.co.uk
Greenday2003
~ = ring out
. = Dont let note ring

Intro
|--------------------------------------------------------|
|--------------------------------------------------------|
|------5--5--5--5---------5--5---------5--5---------5--5-|
|------5--5--5--5--5--5---5--5--5--5---5--5--5--5---5--5-|
|-----3--3--3--3---5--5--3--3---5--5--3--3---5--5--3--3--|
|-(3)-------------3--3---------3--3---------3--3---------|x2(2nd time without(3))


|-----------------------------------------------|
|-----------------------------------------------|
|----5--5--5--5---------5--5---------5--5-------|
|----5--5--5--5--5--5---5--5--5--5---5--5--5--5-|
|---3--3--3--3---5--5--3--3---5--5--3--3---5--5-|
|---------------3--3---------3--3---------3--3--|x1


|--------------------------------------------------------|
|--------------------------------------------------------|
|-5-5-5-5-55555555--------5555--55555555--------5~----5.-|
|-5-5-5-5-55555555--5555--5555--55555555--5555--5~----5.-|
|-3-3-3-3-33333333--5555--3333--33333333--5555--3~----3.-|
|-------------------3333------------------3333-----------|x1

chorus
|--------------------------------------------------|
|--------------------------------------------------|
|-5-555555--------5-5555--------5-5555--------5555-|
|-5-555555-5-5555-5-5555-5-5555-5-5555-5-5555-5555-|
|-3-333333-5-5555-3-3333-5-5555-3-3333-5-5555-3333-|
|----------3-3333--------3-3333--------3-3333------|
Pm  ......   ....   ....   ....   ....   .... 

Cont
|------------------------------|
|------------------------------|
|-55555555------5555------5555-|
|-55555555-5555-5555-5555-5555-|
|-33333333-5555-3333-5555-3333-|
|----------3333------3333------|x3


|-------------------|
|-------------------|
|-55555555-------5~-|
|-55555555--5555-5~-|
|-33333333--5555-3~-|
|-----------3333----|x1


|------------------------------------------------|
|------------------------------------------------|
|------------------------------------------------|
|-5-5555555--------5-5555555---5.---5.---5-5-5-5-|
|-5-5555555-5-5555-5-5555555---5.---5.---5-5-5-5-|
|-3-3333333-5-5555-3-3333333---3.---3.---3-3-3-3-|
|-----------3-3333-------------------------------|x1
pm  .......   ....   .......           

|-------------------------------------------------|
|-------------------------------------------------|
|-55555555------5555------5555-55555555------5555-|
|-55555555-5555-5555-5555-5555-55555555-5555-5555-|
|-33333333-5555-3333-5555-3333-33333333-5555-3333-|
|----------3333------3333---------------3333------|x1

|----------------------------------------|
|----------------------------------------|
|-55555555------5555------5555------5555-|
|-55555555-5555-5555-5555-5555-5555-5555-|
|-33333333-5555-3333-5555-3333-5555-3333-|
|----------3333------3333------3333------|x1


|-----------------------------------------------------|
|-----------------------------------------------------|
|-55555555------5555-55555555------5555-55555555------|
|-55555555-5555-5555-55555555-5555-5555-55555555-5555-|
|-33333333-5555-3333-33333333-5555-3333-33333333-5555-|
|----------3333---------------3333---------------3333-|x1

end
|-------------|
|-------------|
|-5~-5~-5~-5~-|
|-5~-5~-5~-5~-|
|-3~-3~-3~-3~-|
|-------------|x1


Lead Part
|------------------------|
|------------------------|
|------------------------|
|----------3-5-555-3-----|
|-3-333-5-----------5-3--|
|------------------------|

Or
|---------------------------|
|---------------------------|
|---------------------------|
|---------------------------|
|-3-333-5-8-10-101010-8-5-3-|
|---------------------------|

Listen To song for correct timing. 2 CHORD SONG AT ITS BEST
Добавлено: 29.05.2012
Другие материалы по этой песне:
  • Аккорды и текст

Страница создана 17.03.2012
http://primanota.ru/dropkick-murphys/which-side-are-you-on-chords.htm
Привет, Гость.
Предлагаем пройти революционный курс по гитаре.
Подарок от PrimaNota.Ru, забирай!