PrimaNota.ru - самый крупный в мире бесплатный архив песенных текстов, аккордов, табулатур и нот


Dropkick Murphys - Shipping Off To Boston - таба, видео

Регистрация Запомнить меня
Войти через:  Facebook Google Twitter Vk Yandex Mail.ru

Dropkick Murphys - Shipping Off To Boston - таба, видео

Печатать
Просмотров: 715
Уроки эстрадного вокала в Санкт-Петербурге
-------------------------------------------------------------------------------| 
Off to Boston-Dropkick Murphys
-------------------------------------------------------------------------------|
Tabbed by: Stephen Alviso for SamO
Email: Rockinblues87@aol.com

Tuning: Mandolin Std. Tuning

Here is the mandolin line, I couldn't find it anywhere so I tabbed it myself

 Intro
EE EE

   EE                  EE
e|-------------------------------------------|
B|---------------------2-0—–-0---------------|
G|-2-0-2-0-2-4-5-4-2-0-----5—–-5-4-5-4-0-2-0-|
D|-------------------------------------------|

 Intro 2nd part

   EE                  EE               EE                   EE   (DDDAAA)
e|--------------------------------------------------------------------------|
B|-----------------------------------2----------------------2-0—–-0---------|
G|-2-0-2-0-2-4-5-4-2-0-2-0-2-0-2-4-5----2-0-2-0-2-4-5-4-2-0-----5—–-5-4-5-4-|
D|--------------------------------------------------------------------------|

e|------------|
B|------------|
G|-0-2-0------|
D|------------| x3  (Second and third time play DDD AAA at the end)

 Intro 3rd part

   E                   D                E                   D              A
e|-----------------------------------2----------------------2-0—--0---------|
B|-2-0-2-0-2-4-5-4-2-0-2-0-2-0-2-4-5----2-0-2-0-2-4-5-4-2-0-----5---5-4-5-4-|
G|--------------------------------------------------------------------------|
D|--------------------------------------------------------------------------|

 e|------------|
 B|-0-2-0------|
 G|------------|
 D|------------| x2


Verse

   EE                 EE                EE                   D   D   D

e|--------------------------------------------------------------------------|
B|------------------------------------2---------------------2-0—–-0---------|
G|-2-0-2-0-2-4-5-4-2-0-2-0-2-0-2-4-5----2-0-2-0-2-4-5-4-2-0-----5—–-5-4-5-4-|
D|--------------------------------------------------------------------------|
I'm a sailor peg    And I lost my leg  Climbin up the topsails   I lost my


  A   A
e|------------|
B|------------|
G|-0-2-0------|
D|------------| x2 (second time no words)
   leg

   E                   D                 E                  D            A
e|-----------------------------------2----------------------2-0—--0---------|
B|-2-0-2-0-2-4-5-4-2-0-2-0-2-0-2-4-5----2-0-2-0-2-4-5-4-2-0-----5---5-4-5-4-|
G|--------------------------------------------------------------------------|
D|--------------------------------------------------------------------------|

e|------------|
B|-0-2-0------|
G|------------|
D|------------| x2

 Chorus
   D                           C    G
e|-------------------------------------------|
B|-------------------------------------------|
G|-4-4-4-4-4-4-4-4-4-4--------555-44-0-------|
D|-------------------------------------------| x3
I'm shipping up to boston   (whoa oh oh)

   D                         C     G
e|------------------------------------------|
B|------------------------------------------|
G|-4-4-4-4-4-4-4-4-4-4-----555555555555-----|
D|------------------------------------------|
   I'm shipping off     To find my wooden leg


Rinse and Repeat, there you go
Добавлено: 11.07.2013
Другие материалы по этой песне:
  • Аккорды и текст

Страница создана 11.07.2013
http://primanota.ru/dropkick-murphys/shipping-off-to-boston-chords.htm
Привет, Гость.
Предлагаем пройти революционный курс по гитаре.
Подарок от PrimaNota.Ru, забирай!