PrimaNota.ru - самый крупный в мире бесплатный архив песенных текстов, аккордов, табулатур и нот


Dropkick Murphys - Nutty - таба, видео

Регистрация Запомнить меня
Войти через:  Facebook Google Twitter Vk Yandex Mail.ru

Dropkick Murphys - Nutty - таба, видео

Печатать
Просмотров: 163
Уроки эстрадного вокала в Санкт-Петербурге
Dropkick Murphys - Nutty(Boston Bruins Theme) from Live on St. Patrick's
Day
Tabbed by Ryan Gallagher (Yorkmets13@aol.com) This is my original work.
If I've made any errors, please e-mail me so I can correct it.

E|------------------||
B|--5-7---5-7-9/7---||
G|--6-6---6-6-8/6---||
D|--7-7---7-7-9/7---||
A|------------------||
E|------------------||

E|-10-12-10-9---------9-10-9----------------------------------10-9-------------
B|------------12-10-9--------12-10-9----12-10-9-12-10-9----10------12-10-9-----
G|-----------------------------------11-----------------11-----------------11-9
D|-----------------------------------------------------------------------------
A|-----------------------------------------------------------------------------
E|-----------------------------------------------------------------------------

E|----9-10-9------------9-10-12-10-9----9-10-9----9--------------------------||
B|-12--------12-12-12-9--------------12--------12---12-10--------------------||
G|---------------------------------------------------------------------------||
D|---------------------------------------------------------------------------||
A|---------------------------------------------------------------------------||
E|---------------------------------------------------------------------------||

E|----------------------10-10-9-10-10-9-10-10-9-10-12-10-9-------------------||
B|---------6-7-9-10-9-7------------------------------------12----------------||
G|-6h9-6h9-------------------------------------------------------------------||
D|---------------------------------------------------------------------------||
A|---------------------------------------------------------------------------||
E|---------------------------------------------------------------------------||

E|---------------------------------------------------------------------------||
B|---------------------------------------------------------------------------||
G|---------------------------------------------------------------------------||
D|-10-10/11-10/11-10/11-10/11-12/13-10/11-10/11-10/11-10/11------------------||
A|---------------------------------------------------------------------------||
E|---------------------------------------------------------------------------||

E|-------9-10-9------------9-10-12-10-9----9-10-9----9-----------------------||
B|-12-12--------12-12-12-9--------------12--------12---12-10-----------------||
G|---------------------------------------------------------------------------||
D|---------------------------------------------------------------------------||
A|---------------------------------------------------------------------------||
E|---------------------------------------------------------------------------||

E|----------------------9-9-10-9-9-10-10-10-12-10-10-12----------------------||
B|---------6-7-9-10-9-7------------------------------------------------------||
G|-6h9-6h9-------------------------------------------------------------------||
D|---------------------------------------------------------------------------||
A|---------------------------------------------------------------------------||
E|---------------------------------------------------------------------------||

E|------------------||
B|----5-------------||
G|--5-6-------------||
D|--6-7-------------||
A|------------------||
E|------------------||

     
Добавлено: 23.06.2013
Другие материалы по этой песне:
  • Аккорды и текст

Страница создана 23.06.2013
http://primanota.ru/dropkick-murphys/nutty-chords.htm
Привет, Гость.
Предлагаем пройти революционный курс по гитаре.
Подарок от PrimaNota.Ru, забирай!