PrimaNota.ru - самый крупный в мире бесплатный архив песенных текстов, аккордов, табулатур и нот


Dropkick Murphys - Ill Begin Again - текст песни, таба, видео

Регистрация Запомнить меня
Войти через:  Facebook Google Twitter Vk Yandex Mail.ru

Dropkick Murphys - Ill Begin Again - текст песни, таба, видео

Печатать
Просмотров: 148
-----------------------------------------------------------------
I'll Begin Again - Dropkick Murphys
-----------------------------------------------------------------
Tabbed by: Dr. Viktor   
Email: yes

Tuning: Standard

My first tab, Don't be afraid to comment!!

this shows only the intro tabs and the chords used in the song, figure out the rythm for yourself!

(Intro)
Gtr.1
e|--------------------------------------------------------------------|
B|---------------------------8-------------5-5---8--------------------|
G|--^7--5p3-----^5-0--0-3-5-7--5p3-----^5--5-5--7--5p3-----^5-0--0-3-5|
D|----------3/5--------------------3/5-----------------3/5------------|
A|--------------------------------------------------------------------|
E|--------------------------------------------------------------------|

(Ending of Intro)
Gtr.1 + Gtr3
e|------------------------------6-6--10-10-10-10-10-10----------------|
B|--------------6-6-8-8-8-8-8-8---------------------------------------|
G|--7-7-7-7-7-7-------------------------------------------------------|
D|--------------------------------------------------------------------|
A|--------------------------------------------------------------------|
E|--------------------------------------------------------------------|

Gtr.2
   G5 A#5 D#5
e|--------------------------------------------------------------------|
B|--------------------------------------------------------------------|
G|--------8-----------------------------------------------------------|
D|--5--8--8-----------------------------------------------------------|
A|--5--8--6-----------------------------------------------------------|
E|--3--6--------------------------------------------------------------|


(Verse)
Gtr.2
   G5 A#5 D#5
e|--------------------------------------------------------------------|
B|--------------------------------------------------------------------|
G|--------8-----------------------------------------------------------|
D|--5--8--8--8--5-----------------------------------------------------|
A|--5--8--6--8--5-----------------------------------------------------|
E|--3--6-----6--3-----------------------------------------------------|

(Refrain)
Gtr.1 + Gtr.2

e|--------------------------------------------------------------------|
B|-----4------4-----4-------------------------------------------------|
G|--3--3---3--3--3--3--3--8--11---------------------------------------|
D|--3--1---3--1--3--1--3--8--11---------------------------------------|
A|--1------1-----1-----1--6--9----------------------------------------|
E|--------------------------------------------------------------------|

That's all I've got so far.

Please comment!!

| /  slide up
| \  slide down
| h  hammer-on
| p  pull-off
| ~  vibrato
| +  harmonic
| x  Mute note
| ^  Bend string
Добавлено: 22.06.2012
Другие материалы по этой песне:
  • Аккорды и текст

Страница создана 31.05.2012
http://primanota.ru/dropkick-murphys/ill-begin-again-chords.htm
Привет, Гость.
Предлагаем пройти революционный курс по гитаре.
Подарок от PrimaNota.Ru, забирай!