PrimaNota.ru - самый крупный в мире бесплатный архив песенных текстов, аккордов, табулатур и нот


Dropkick Murphys - Im Shippin Up To Boston - таба, видео

Регистрация Запомнить меня
Войти через:  Facebook Google Twitter Vk Yandex Mail.ru

Dropkick Murphys - Im Shippin Up To Boston - таба, видео

Печатать
Просмотров: 220
INTRO:
|E5-E5-|E5-E5-*feedback*|

  E5 E5                 E5 E5                
e|-----------2-3-2-----|7-5-3-5-3-2-3-2-------|
b|5-3-5--3-5-------5-3-|----------------3-5--3|
G|---------------------|----------------------|
D|---------------------|----------------------|
A|---------------------|----------------------|
E|---------------------|----------------------|

  E5  E5                E5  E5           E5 E5                 E5 E5*let ring*       
e|-----------2-3-2-----|----------2-3-7-|-----------2-3-2-----|7-5-3-5-3-2-3-2----|
b|5-3-5—-3-5-------5-3-|5-3-5—3-5-------|5-3-5--3-5-------5-3-|----------------3-5|
G|---------------------|----------------|---------------------|-------------------|
D|---------------------|----------------|---------------------|-------------------|
A|---------------------|----------------|---------------------|-------------------|
E|---------------------|----------------|---------------------|-------------------| 

  E5  E5                E5  E5           E5 E5                 D5          A5              
e|-----------2-3-2-----|----------2-3-7-|-----------2-3-2-----|7-5-3-5-3-2-3-2----|
b|5-3-5—-3-5-------5-3-|5-3-5—3-5-------|5-3-5--3-5-------5-3-|----------------3-5|
G|---------------------|----------------|---------------------|-------------------|
D|---------------------|----------------|---------------------|-------------------|
A|---------------------|----------------|---------------------|-------------------|
E|---------------------|----------------|---------------------|-------------------| 
        
  E5  E5                E5  E5           E5 E5                 D5          A5              
e|-----------2-3-2-----|----------2-3-7-|-----------2-3-2-----|7-5-3-5-3-2-3-2----|
b|5-3-5—-3-5-------5-3-|5-3-5—3-5-------|5-3-5--3-5-------5-3-|----------------3-5|
G|---------------------|----------------|---------------------|-------------------|
D|---------------------|----------------|---------------------|-------------------|
A|---------------------|----------------|---------------------|-------------------|
E|---------------------|----------------|---------------------|-------------------| 

  B5                           A5 
e|---------------9-10-9-------|---------------9-10-14-|
b|12-10-12—10-12--------12-10-|12-10-12-10-12---------|
G|----------------------------|-----------------------|
D|----------------------------|-----------------------|
A|----------------------------|-----------------------|
E|----------------------------|-----------------------| 

  B5                           D5               A5 
e|---------------9-10-9-------|14-12-10-12-10-9-10-9------|
b|12-10-12—10-12--------12-10-|----------------------10-12|
G|----------------------------|---------------------------|
D|----------------------------|---------------------------|
A|----------------------------|---------------------------|
E|----------------------------|---------------------------| 

  B5                           A5 
e|---------------9-10-9-------|---------------9-10-14-|
b|12-10-12—10-12--------12-10-|12-10-12-10-12---------|
G|----------------------------|-----------------------|
D|----------------------------|-----------------------|
A|----------------------------|-----------------------|
E|----------------------------|-----------------------| 
                                                           I'm a
  B5                           D5               A5 
e|---------------9-10-9-------|14-12-10-12-10-9-10-9------|
b|12-10-12—10-12--------12-10-|----------------------10-12|
G|----------------------------|---------------------------|
D|----------------------------|---------------------------|
A|----------------------------|---------------------------|
E|----------------------------|---------------------------| 



VERSE:
  Sailor peg   And I've Lost my Leg      Climbin' up the topsails, I lost my leg
  E5  E5                E5  E5           E5 E5                 D5          A5              
e|-----------2-3-2-----|----------2-3-7-|-----------2-3-2-----|7-5-3-5-3-2-3-2----|
b|5-3-5—-3-5-------5-3-|5-3-5—3-5-------|5-3-5--3-5-------5-3-|----------------3-5|
G|---------------------|----------------|---------------------|-------------------|
D|---------------------|----------------|---------------------|-------------------|
A|---------------------|----------------|---------------------|-------------------|
E|---------------------|----------------|---------------------|-------------------| 

  E5  E5                E5  E5           E5 E5                 D5          A5              
e|-----------2-3-2-----|----------2-3-7-|-----------2-3-2-----|7-5-3-5-3-2-3-2----|
b|5-3-5—-3-5-------5-3-|5-3-5—3-5-------|5-3-5--3-5-------5-3-|----------------3-5|
G|---------------------|----------------|---------------------|-------------------|
D|---------------------|----------------|---------------------|-------------------|
A|---------------------|----------------|---------------------|-------------------|
E|---------------------|----------------|---------------------|-------------------| 

  B5                           A5 
e|---------------9-10-9-------|---------------9-10-14-|
b|12-10-12—10-12--------12-10-|12-10-12-10-12---------|
G|----------------------------|-----------------------|
D|----------------------------|-----------------------|
A|----------------------------|-----------------------|
E|----------------------------|-----------------------| 

  B5                           D5               A5 
e|---------------9-10-9-------|14-12-10-12-10-9-10-9------|
b|12-10-12—10-12--------12-10-|----------------------10-12|
G|----------------------------|---------------------------|
D|----------------------------|---------------------------|
A|----------------------------|---------------------------|
E|----------------------------|---------------------------| 

  B5                           A5 
e|---------------9-10-9-------|---------------9-10-14-|
b|12-10-12—10-12--------12-10-|12-10-12-10-12---------|
G|----------------------------|-----------------------|
D|----------------------------|-----------------------|
A|----------------------------|-----------------------|
E|----------------------------|-----------------------| 

  B5                           D5               A5 
e|---------------9-10-9-------|14-12-10-12-10-9-10-9------|
b|12-10-12—10-12--------12-10-|----------------------10-12|
G|----------------------------|---------------------------|
D|----------------------------|---------------------------|
A|----------------------------|---------------------------|
E|----------------------------|---------------------------| 

CHORUS:
    D5                   C5  G5
I'm Shippin up to Boston (Way Oh)

    D5                   C5  G5
I'm Shippin up to Boston (Way Oh)

    D5                   C5  G5
I'm Shippin up to Boston (Way Oh)

    D5             C5      G5
I'm Shippin up, to find my wooden 









  leg   
  E5  E5                E5  E5           E5 E5                 D5          A5       I'm A  
e|-----------2-3-2-----|----------2-3-7-|-----------2-3-2-----|7-5-3-5-3-2-3-2----|
b|5-3-5—-3-5-------5-3-|5-3-5—3-5-------|5-3-5--3-5-------5-3-|----------------3-5|
G|---------------------|----------------|---------------------|-------------------|
D|---------------------|----------------|---------------------|-------------------|
A|---------------------|----------------|---------------------|-------------------|
E|---------------------|----------------|---------------------|-------------------|

VERSE:
  Sailor peg   And I've Lost my Leg      Climbin' up the topsails, I lost my leg
  E5  E5                E5  E5           E5 E5                 D5          A5              
e|-----------2-3-2-----|----------2-3-7-|-----------2-3-2-----|7-5-3-5-3-2-3-2----|
b|5-3-5—-3-5-------5-3-|5-3-5—3-5-------|5-3-5--3-5-------5-3-|----------------3-5|
G|---------------------|----------------|---------------------|-------------------|
D|---------------------|----------------|---------------------|-------------------|
A|---------------------|----------------|---------------------|-------------------|
E|---------------------|----------------|---------------------|-------------------| 

  B5                           A5 
e|---------------9-10-9-------|---------------9-10-14-|
b|12-10-12—10-12--------12-10-|12-10-12-10-12---------|
G|----------------------------|-----------------------|
D|----------------------------|-----------------------|
A|----------------------------|-----------------------|
E|----------------------------|-----------------------| 

  B5                           D5               A5 
e|---------------9-10-9-------|14-12-10-12-10-9-10-9------|
b|12-10-12—10-12--------12-10-|----------------------10-12|
G|----------------------------|---------------------------|
D|----------------------------|---------------------------|
A|----------------------------|---------------------------|
E|----------------------------|---------------------------| 

  B5                           A5 
e|---------------9-10-9-------|---------------9-10-14-|
b|12-10-12—10-12--------12-10-|12-10-12-10-12---------|
G|----------------------------|-----------------------|
D|----------------------------|-----------------------|
A|----------------------------|-----------------------|
E|----------------------------|-----------------------| 

  B5                           D5               A5 
e|---------------9-10-9-------|14-12-10-12-10-9-10-9------|
b|12-10-12—10-12--------12-10-|----------------------10-12|
G|----------------------------|---------------------------|
D|----------------------------|---------------------------|
A|----------------------------|---------------------------|
E|----------------------------|---------------------------| 

CHORUS:
    D5                   C5  G5
I'm Shippin up to Boston (Way Oh)

    D5                   C5  G5
I'm Shippin up to Boston (Way Oh)

    D5                   C5  G5
I'm Shippin up to Boston (Way Oh)

    D5             C5      G5
I'm Shippin up, to find my wooden 







  leg                                                          *SLOW DOWN*
  E5  E5                E5  E5           E5 E5                 D5               A5              
e|-----------2-3-2-----|----------2-3-7-|-----------2-3-2-----|7-5-3-5-3-2-3-2----|
b|5-3-5—-3-5-------5-3-|5-3-5—3-5-------|5-3-5--3-5-------5-3-|------------------3|
G|---------------------|----------------|---------------------|-------------------|
D|---------------------|----------------|---------------------|-------------------|
A|---------------------|----------------|---------------------|-------------------|
E|---------------------|----------------|---------------------|-------------------| 

END WITH:
|E5-E5-|
Добавлено: 30.05.2012
Другие материалы по этой песне:
  • Аккорды и текст

Страница создана 30.05.2012
http://primanota.ru/dropkick-murphys/im-shippin-up-to-boston-chords.htm
Привет, Гость.
Предлагаем пройти революционный курс по гитаре.
Подарок от PrimaNota.Ru, забирай!