PrimaNota.ru - самый крупный в мире бесплатный архив песенных текстов, аккордов, табулатур и нот


Dream Theater - This Dying Soul - текст песни, таба, бас-таба, видео

Регистрация Запомнить меня
Войти через:  Facebook Google Twitter Vk Yandex Mail.ru

Dream Theater - This Dying Soul - текст песни, таба, бас-таба, видео

Печатать
Просмотров: 395
This is the final unison solo of the song "This Dying Soul" by the band
"Dream Theater".

I'm pretty sure that Petrucci plays the whole thing like this.
It was much work, I hope you will enjoy it ;)



     S S  S S S  S S S S  S  S S  S  S  S S
E||-----------------------------------------|
B||-----------------------------------------|
G||-----------------------------------------|
D||-----------------------------------------|
A||----------------------------9-10-12-10-9-|
E||---------7-8-10-8-7-8-10-12--------------|
B||--7-8-10---------------------------------|


   S  S  S  S  S  S  S  S  S  S  S  S  S  S S S
-------------------------------------------------|
-------------------------------------------------|
-------------------------------------------------|
-----------10-12-14-12-10------------------------|
--10-12-14----------------14-12-10-14-12-10-9-12-|
-------------------------------------------------|
-------------------------------------------------|


   S S  S S  S  S  S S  S  S S  S  S S S  S
--------------------------------------------|
--------------------------------------------|
--------------------------------------------|
--------------------------------------------|
--10-9----9-10-12-10-9----------------------|
-------12--------------12-10-8-12-10-8-7-10-|
--------------------------------------------|


  S S  S S S  S S S  S S S  S S S  S S
---------------------------------------|
---------------------------------------|
---------------------------------------|
---------------------------------------|
---------------------------------------|
--8-7----7-8-10-8-7----7-8-10-8-7------|
------10------------10------------10-8-|


  S S  S S S  S S S S  S  S S  S  S  S S
-----------------------------------------|
-----------------------------------------|
-----------------------------------------|
-----------------------------------------|
----------------------------9-10-12-10-9-|
---------7-8-10-8-7-8-10-12--------------|
--7-8-10---------------------------------|


   S  S  S  S  S  S  S  S  S  S  S  S  S  S  S
-----------------------------------------------|
-----------------------------------------------|
-----------------------------------12-14-16-14-|
-----------10-12-14-12-10-12-14-16-------------|
--10-12-14-------------------------------------|
-----------------------------------------------|
-----------------------------------------------|


   S  S  S  S  S  S  S  S  S  S  S  S  S  S  S  S
--------------------------------------------------|
--------------------------------------------------|
--------------------------------------------------|
--16-14-12-16-14-12-10-14-12-10-------------------|
--------------------------------14-12-10-14-12-10-|
--------------------------------------------------|
--------------------------------------------------|


  S  S  S S  S  S S  S  S S  S S  S  S  S S
--------------------------------------------|
--------------------------------------------|
--------------------------------------------|
--------------------------------------------|
--9-12-10-9---------------------------------|
------------12-10-8-12-10-8----8-10-12-10-8-|
----------------------------12--------------|


  S S  S S S  S S S  S S S  S S S
----------------------------------|
----------------------------------|
----------------------------------|
----------------------------------|
----------------------------------|
---------7-8-10-8-7---------------|
--7-8-10------------10-8-7-10-8-7-|


  S S S S S S S S S S S S S S
------------------------------|
------------------------------|
------------------------------|
------------------------------|
------------------------------|
--------5-7-8-7-5-------------|
--5-7-8-----------8-7-5-8-7-5-|


  S S S S S S S S S S S S S S
------------------------------|
------------------------------|
------------------------------|
------------------------------|
------------------------------|
--------3-5-7-5-3-------------|
--3-5-7-----------7-5-3-7-5-3-|


  S S S S S S S S S S S S S S S S S S S S S S
----------------------------------------------|
----------------------------------------------|
----------------------------------------------|
----------------------------------------5-7-9-|
------------------------3-5-7-5-3-5-7-9-------|
--------2-3-5-3-2-3-5-7-----------------------|
--1-3-5---------------------------------------|


  S  S S S  S S S  S S S S  S  S S
-----------------------------------|
-----------------------------------|
-----------------------------------|
--9-10-9-7-----------------------9-|
-----------10-9-7-10-9-7-9-10-12---|
-----------------------------------|
-----------------------------------|


   S  S  S S  S  S S  S  S S  S  S  S  S
-----------------------------------------|
-----------------------------------------|
-----------------------------------------|
--10-12-10-9--------------------------10-|
-------------12-10-9-12-10-9-10-12-14----|
-----------------------------------------|
-----------------------------------------|


   S  S  S  S  S  S  S  S  S  S  S  S  S  S
--------------------------------------------|
--------------------------------------------|
--------------------------------------------|
--12-14-12-10----------------------------14-|
--------------14-12-10-14-12-10-14-15-17----|
--------------------------------------------|
--------------------------------------------|


   S  S  S  S  S  S  S  S  S  S  S  S  Q
--------------------------------------------|
--------------------------------------------|
--------------------------------------------|
--16-17-16-14-------------------------------|
--------------17-15-14-17-15-14-------------|
--------------------------------17-15-14----|
--------------------------------------------|


   S  S  S  S  S  S  S  S  S  S  S  S  S  S  S
-----------------------------------------------|
-----------------------------------------------|
-----------------------------------------------|
-----------------------------------------------|
--14----------------14-15-17-15-14-------------|
-----17-15-14-15-17----------------17-15-14-17-|
-----------------------------------------------|


   S  S  S  S  S  S  S  S  S  S  S  S  S  S  S
-----------------------------------------------|
-----------------------------------------------|
-----------------------------------------------|
-----------------------------------------------|
--14----------------14-15-17-15-14-------------|
-----17-15-14-15-17----------------17-15-14-17-|
-----------------------------------------------|


   S  S  S  S  S  S  S  S  S  S  S  S  S  S  S  S
--------------------------------------------------|
--------------------------------------------------|
--------------------------------------------------|
--------------------------------------------------|
--14----------------14----------------14----------|
-----17-15-14-15-17----17-15-14-15-17----17-15-14-|
--------------------------------------------------|


   S  S  S  S  S  S  S  S  S  S  S  S  Q
--------------------------------------------|
--------------------------------------------|
--------------------------------------------|
--------------------------------------------|
--------14-15-17-15-14----------------14----|
--15-17----------------17-15-14-15-17-------|
--------------------------------------------|


   S  S  S  S  S  S  S  S  S  S  S  S  S  S  S  S
--------------------------------------------------|
--------------------------------------------------|
--16----------------16-17-19-17-16----------------|
-----19-17-16-17-19----------------19-17-16-17-19-|
--------------------------------------------------|
--------------------------------------------------|
--------------------------------------------------|


   S  S  S  S  S  S  S  S  S  S  S  S  S  S  S  S
--------------------------------------------------|
--------------------------------------------------|
--16----------------16-17-19-17-16----------------|
-----19-17-16-17-19----------------19-17-16-17-19-|
--------------------------------------------------|
--------------------------------------------------|
--------------------------------------------------|


   S  S  S  S  S  S  S  S  S  S  S  S  S  S  S  S
--------------------------------------------------|
--------------------------------------------------|
--16----------------16----------------16----------|
-----19-17-16-17-19----19-17-16-17-19----19-17-16-|
--------------------------------------------------|
--------------------------------------------------|
--------------------------------------------------|


   S  S  S  S  S  S  S  S  S  S  S  S  Q
--------------------------------------------|
--------------------------------------------|
--------16-17-19-17-16----------------16----|
--17-19----------------19-17-16-17-19-------|
--------------------------------------------|
--------------------------------------------|
--------------------------------------------|


   S  S  S  S  S  S  S  S  S  S  S  S  S  S  S  S
--------------------------------------------------|
--------------------------------------------------|
--------------------------------------------------|
-----------------------------------14-16-17-16-14-|
-----------12-14-15-14-12-14-15-17----------------|
--12-14-15----------------------------------------|
--------------------------------------------------|


   S  S  S  S  S  S  S  S  S  S  S  S  S  S  S  S  S  S  S  S
-----------------------------------------------------------20-|
-----------------------------------19-20-22-20-19-20-22-24----|
-----------16-17-19-17-16-17-19-21----------------------------|
--16-17-19----------------------------------------------------|
--------------------------------------------------------------|
--------------------------------------------------------------|
--------------------------------------------------------------|


   S  S  S  S  S  S  S  S  S  S  S  S  S  S  S  S
--22-24-22-20-------------------------------------|
--------------24-22-20-24-22-20-19-22-20-19----19-|
--------------------------------------------21----|
--------------------------------------------------|
--------------------------------------------------|
--------------------------------------------------|
--------------------------------------------------|


   S  S  S  S  S  S  S  S  S  S  S  S  S  S  S  S
--------------------------------------------------|
--20-22-20-19-------------------------------------|
--------------21-19-17-21-19-17-16-19-17-16----16-|
--------------------------------------------19----|
--------------------------------------------------|
--------------------------------------------------|
--------------------------------------------------|


   S  S  S  S  S  S  S  S  S  S  S  S  S  S  S  S
--------------------------------------------------|
--------------------------------------------------|
--17-19-17-16-------------------------------------|
--------------19-17-16-19-17-16-14-17-16-14----14-|
--------------------------------------------17----|
--------------------------------------------------|
--------------------------------------------------|


   S  S  S  S  S  S  S  S  S  S  S  S  S  S  S  S
--------------------------------------------------|
--------------------------------------------------|
--------------------------------------------------|
--16-17-16-14-------------------------------------|
--------------17-15-14-17-15-14-12-15-14-12-------|
--------------------------------------------15-14-|
--------------------------------------------------|


   S  S  S  S  S  S  S  S  S  S  S  S  S  S  S  S
--------------------------------------------------|
--------------------------------------------------|
--------------------------------------------------|
-----------------------------------14-16-17-16-14-|
-----------12-14-15-14-12-14-15-17----------------|
--12-14-15----------------------------------------|
--------------------------------------------------|


   S  S  S  S  S  S  S  S  S  S  S  S  S  S  S  S
--------------------------------------------------|
-----------------------------------19-20-22-20-19-|
-----------16-17-19-17-16-17-19-21----------------|
--16-17-19----------------------------------------|
--------------------------------------------------|
--------------------------------------------------|
--------------------------------------------------|


   S  S  S  S  S  S  S  S  S  S  S  S  S  S
--22-24-22-20----------------------------19-|
--------------24-22-20-24-22-20-19-20-22----|
--------------------------------------------|
--------------------------------------------|
--------------------------------------------|
--------------------------------------------|
--------------------------------------------|


   S  S  S  S  S  S  S  S  S  S  S  S  S  S
--20-22-20-19----------------------------17-|
--------------22-20-19-22-20-19-17-19-20----|
--------------------------------------------|
--------------------------------------------|
--------------------------------------------|
--------------------------------------------|
--------------------------------------------|


   S  S  S  S  S  S  S  S  S  S  S  S  S  S
--19-20-19-17----------------------------15-|
--------------20-19-17-20-19-17-15-17-19----|
--------------------------------------------|
--------------------------------------------|
--------------------------------------------|
--------------------------------------------|
--------------------------------------------|


   S  S  S  S  S  S  S  S  S  S  S  S  S  S
--17-19-17-15----------------------------14-|
--------------19-17-15-19-17-15-13-15-17----|
--------------------------------------------|
--------------------------------------------|
--------------------------------------------|
--------------------------------------------|
--------------------------------------------|


   S  S  S  S  S  S  S  S  S  S  S  S  S  S
--15-17-15-14----------------------------12-|
--------------17-15-13-17-15-13-12-13-15----|
--------------------------------------------|
--------------------------------------------|
--------------------------------------------|
--------------------------------------------|
--------------------------------------------|


   S  S  S  S  S  S  S  S  S  S  S  S  S  S  S  S
--14-15-14-12-------------------------------------|
--------------15-13-12-15-13-12-10-13-12-10----10-|
--------------------------------------------12----|
--------------------------------------------------|
--------------------------------------------------|
--------------------------------------------------|
--------------------------------------------------|


   S  S  S  S  S  S S  S  S S S  S S S  S S
--------------------------------------------|
--12-13-12-10-------------------------------|
--------------12-11-9-12-11-9-7-11-9-7----7-|
---------------------------------------10---|
--------------------------------------------|
--------------------------------------------|
--------------------------------------------|


  S  S S S  S S S  S S S S S S S S S
-------------------------------------|
-------------------------------------|
--9-11-9-7---------------------------|
-----------10-9-7-10-9-7-5-9-7-5---5-|
---------------------------------9---|
-------------------------------------|
-------------------------------------|


  S S S S S S S S S S S S S S S S
----------------------------------|
----------------------------------|
----------------------------------|
--7-9-7-5-------------------------|
----------9-7-5-9-7-5-3-7-5-3---3-|
------------------------------7---|
----------------------------------|


  S S S S S S S S S S S S S S S S
----------------------------------|
----------------------------------|
----------------------------------|
----------------------------------|
--5-7-5-3-------------------------|
----------7-5-3-7-5-3-2-5-3-2---2-|
------------------------------5---|


  S S S S S S S S S S S S S S S S
----------------------------------|
----------------------------------|
----------------------------------|
----------------------------------|
----------------------------------|
--3-5-3-2-------------------------|
----------5-3-1-5-3-1-0-1-3-5-3-1-|


  S S S S E  S E  S E  Q
----------------------------|
----------------------------|
----------------------------|
----------------------------|
----------------------------|
----------------------------|
--0-0-0-0-0--0-0--0-0-------|


  S S S S E  S E  S E  H
--------------------------------||
--------------------------------||
-----------------------5--------||
-----------------------4--------||
--------------------------------||
--------------------------------||
--0-0-0-0-0--0-0--0-0-----------||


Duration Legend
---------------
W - whole
H - half
Q - quarter
E - 8th
S - 16th
Добавлено: 27.07.2012
Другие материалы по этой песне:

Страница создана 12.03.2012
http://primanota.ru/dream-theater/this-dying-soul-chords.htm
Привет, Гость.
Предлагаем пройти революционный курс по гитаре.
Подарок от PrimaNota.Ru, забирай!