PrimaNota.ru - самый крупный в мире бесплатный архив песенных текстов, аккордов, табулатур и нот


Dream Theater - Through My Words - аккорды и текст, таба, бас-таба, видео

Регистрация Запомнить меня
Войти через:  Facebook Google Twitter Vk Yandex Mail.ru

Dream Theater - Through My Words - аккорды и текст, таба, бас-таба, видео

Печатать
Просмотров: 199
Through My Words
Dream Theater
Legend
------
h  = hammer-on
p  = pull-off
b  = bend
r  = bend release
/  = slide up/down
 = natural harmonic
(5) = artifical harmonic
~  = vibrato
tr = trill
Keyboard arranged for guitar
Clean tone w/chorus
Fingerstyle
Let ring
  4:4
[E--------3--2-----------3--2------------3--2-----------3--2------------3--2--
B--------------3--------------3---------------3--------------3---------------
G-----0--------------0---------------0--------------0---------------0--------
D----------------------------------------------------------------------------
A----------------------------------------------------------------------------
E--3------------------------------3------------------------------3-----------

E----------3--2------------3--2-----------3--2------------3--2-----------3--
B-3--------------3---------------3--------------3---------------3-----------
G-------0---------------0--------------0---------------0--------------0-----
D---------------------------------------------------------------------------
A--------------------2------------------------------------------------------
E---------------------------------------------------0-----------------------

E-2------------3--2----------3--3--3---------3--2----------3--2---------------
B----3---------------3-------3--1--0---------------3-------------3---------10-
G-----------0-------------0---------------0-------------0-------------------7-
D--------------------------------------------------------------------0--7-----
A--------3-----------------------------------------------------------0--------
E--------------------------------------3--------------------------------------

E---------------10--12--------------3--2------------0-----------3--3--3---3-
B--10--10-------10--10----------------3------3-----1--------3--1--0-----
G---9--11--------------------0------------0--0--0--0-----0------------2-
D---------------------------------------------------------------------------
A-----------12--------------------------------------------3-----------------
E-----------------------------0---------------------------------------------

E--3-----0-----0--0--0--2---3--5--7--5--------0--2--5---10--12--10--7-------
B-----3--0-----0--0--0--0---0--0--0--3-----3-----3--5----7---8---7--8-------
G--0--2-------------------------------------------------------------------0-
D---------------------------------------0-----------------------------------
A---------------------------------------------------------------------------
E-----------0----------------------------------------------------------3----]
                                segue to Fatal Tragedy...
[E--3--2---------3--2-----------3--2------------------------------------------
B--------3------------3--------------3------3--0-----------------------------
G------------0--------------0------------0--2-----0--------------------------
D---------------------------------------------------4------------------------
A----------------------------------------------------------------------------
E------------------------3-----------------------------0---------------------]
Добавлено: 06.04.2014
Другие материалы по этой песне:

Страница создана 29.03.2012
http://primanota.ru/dream-theater/through-my-words-chords.htm
Привет, Гость.
Предлагаем пройти революционный курс по гитаре.
Подарок от PrimaNota.Ru, забирай!